ISO-10303-21;
HEADER;
/* Generated by software containing ST-Developer
 * from STEP Tools, Inc. (www.steptools.com) 
 */

FILE_DESCRIPTION(
/* description */ (''),
/* implementation_level */ '2;1');

FILE_NAME(
/* name */ 
'C:\\Users\\O.Boryczka\\Desktop\\Korrigierte Zeichnungen\\Ronden mit L
ochung V2A\\IPT_Daten\\43803.ipt.step',
/* time_stamp */ '2022-07-18T12:57:07+02:00',
/* author */ ('Abt. Technik'),
/* organization */ ('Beurskens GmbH'),
/* preprocessor_version */ 'ST-DEVELOPER v18.1',
/* originating_system */ 'Autodesk Inventor 2022',
/* authorisation */ '');

FILE_SCHEMA (('AUTOMOTIVE_DESIGN { 1 0 10303 214 3 1 1 }'));
ENDSEC;

DATA;
#10=MECHANICAL_DESIGN_GEOMETRIC_PRESENTATION_REPRESENTATION('',(#13),#208);
#11=SHAPE_REPRESENTATION_RELATIONSHIP('SRR','None',#215,#12);
#12=ADVANCED_BREP_SHAPE_REPRESENTATION('',(#14),#207);
#13=STYLED_ITEM('',(#224),#14);
#14=MANIFOLD_SOLID_BREP('Volumenk\X\F6rper1',#107);
#15=FACE_BOUND('',#33,.T.);
#16=FACE_BOUND('',#34,.T.);
#17=FACE_BOUND('',#38,.T.);
#18=FACE_BOUND('',#39,.T.);
#19=PLANE('',#136);
#20=PLANE('',#143);
#21=CYLINDRICAL_SURFACE('',#134,60.);
#22=CYLINDRICAL_SURFACE('',#139,7.5);
#23=CYLINDRICAL_SURFACE('',#141,7.5);
#24=FACE_OUTER_BOUND('',#30,.T.);
#25=FACE_OUTER_BOUND('',#31,.T.);
#26=FACE_OUTER_BOUND('',#32,.T.);
#27=FACE_OUTER_BOUND('',#35,.T.);
#28=FACE_OUTER_BOUND('',#36,.T.);
#29=FACE_OUTER_BOUND('',#37,.T.);
#30=EDGE_LOOP('',(#76,#77,#78,#79,#80));
#31=EDGE_LOOP('',(#81,#82,#83,#84,#85));
#32=EDGE_LOOP('',(#86));
#33=EDGE_LOOP('',(#87));
#34=EDGE_LOOP('',(#88));
#35=EDGE_LOOP('',(#89,#90,#91,#92));
#36=EDGE_LOOP('',(#93,#94,#95,#96));
#37=EDGE_LOOP('',(#97));
#38=EDGE_LOOP('',(#98));
#39=EDGE_LOOP('',(#99));
#40=LINE('',#183,#44);
#41=LINE('',#189,#45);
#42=LINE('',#198,#46);
#43=LINE('',#202,#47);
#44=VECTOR('',#150,59.75);
#45=VECTOR('',#157,60.);
#46=VECTOR('',#168,7.5);
#47=VECTOR('',#173,7.5);
#48=CIRCLE('',#131,59.5);
#49=CIRCLE('',#132,60.);
#50=CIRCLE('',#133,60.);
#51=CIRCLE('',#135,60.);
#52=CIRCLE('',#137,7.5);
#53=CIRCLE('',#138,7.5);
#54=CIRCLE('',#140,7.5);
#55=CIRCLE('',#142,7.5);
#56=VERTEX_POINT('',#180);
#57=VERTEX_POINT('',#182);
#58=VERTEX_POINT('',#184);
#59=VERTEX_POINT('',#188);
#60=VERTEX_POINT('',#192);
#61=VERTEX_POINT('',#194);
#62=VERTEX_POINT('',#197);
#63=VERTEX_POINT('',#201);
#64=EDGE_CURVE('',#56,#56,#48,.T.);
#65=EDGE_CURVE('',#56,#57,#40,.T.);
#66=EDGE_CURVE('',#57,#58,#49,.T.);
#67=EDGE_CURVE('',#58,#57,#50,.T.);
#68=EDGE_CURVE('',#58,#59,#41,.T.);
#69=EDGE_CURVE('',#59,#59,#51,.T.);
#70=EDGE_CURVE('',#60,#60,#52,.T.);
#71=EDGE_CURVE('',#61,#61,#53,.T.);
#72=EDGE_CURVE('',#60,#62,#42,.T.);
#73=EDGE_CURVE('',#62,#62,#54,.T.);
#74=EDGE_CURVE('',#61,#63,#43,.T.);
#75=EDGE_CURVE('',#63,#63,#55,.T.);
#76=ORIENTED_EDGE('',*,*,#64,.T.);
#77=ORIENTED_EDGE('',*,*,#65,.T.);
#78=ORIENTED_EDGE('',*,*,#66,.T.);
#79=ORIENTED_EDGE('',*,*,#67,.T.);
#80=ORIENTED_EDGE('',*,*,#65,.F.);
#81=ORIENTED_EDGE('',*,*,#66,.F.);
#82=ORIENTED_EDGE('',*,*,#67,.F.);
#83=ORIENTED_EDGE('',*,*,#68,.T.);
#84=ORIENTED_EDGE('',*,*,#69,.T.);
#85=ORIENTED_EDGE('',*,*,#68,.F.);
#86=ORIENTED_EDGE('',*,*,#64,.F.);
#87=ORIENTED_EDGE('',*,*,#70,.T.);
#88=ORIENTED_EDGE('',*,*,#71,.T.);
#89=ORIENTED_EDGE('',*,*,#70,.F.);
#90=ORIENTED_EDGE('',*,*,#72,.T.);
#91=ORIENTED_EDGE('',*,*,#73,.T.);
#92=ORIENTED_EDGE('',*,*,#72,.F.);
#93=ORIENTED_EDGE('',*,*,#71,.F.);
#94=ORIENTED_EDGE('',*,*,#74,.T.);
#95=ORIENTED_EDGE('',*,*,#75,.T.);
#96=ORIENTED_EDGE('',*,*,#74,.F.);
#97=ORIENTED_EDGE('',*,*,#69,.F.);
#98=ORIENTED_EDGE('',*,*,#75,.F.);
#99=ORIENTED_EDGE('',*,*,#73,.F.);
#100=CONICAL_SURFACE('',#130,59.75,0.785398163397446);
#101=ADVANCED_FACE('',(#24),#100,.T.);
#102=ADVANCED_FACE('',(#25),#21,.T.);
#103=ADVANCED_FACE('',(#26,#15,#16),#19,.T.);
#104=ADVANCED_FACE('',(#27),#22,.F.);
#105=ADVANCED_FACE('',(#28),#23,.F.);
#106=ADVANCED_FACE('',(#29,#17,#18),#20,.F.);
#107=CLOSED_SHELL('',(#101,#102,#103,#104,#105,#106));
#108=DERIVED_UNIT_ELEMENT(#111,1.);
#109=DERIVED_UNIT_ELEMENT(#210,-3.);
#110=DIMENSIONAL_EXPONENTS(1.,0.,0.,0.,0.,0.,0.);
#111=(
CONVERSION_BASED_UNIT('gram',#113)
MASS_UNIT()
NAMED_UNIT(#110)
);
#112=(
MASS_UNIT()
NAMED_UNIT(*)
SI_UNIT(.KILO.,.GRAM.)
);
#113=MASS_MEASURE_WITH_UNIT(MASS_MEASURE(0.001),#112);
#114=DERIVED_UNIT((#108,#109));
#115=MEASURE_REPRESENTATION_ITEM('density measure',
POSITIVE_RATIO_MEASURE(8.),#114);
#116=PROPERTY_DEFINITION_REPRESENTATION(#121,#118);
#117=PROPERTY_DEFINITION_REPRESENTATION(#122,#119);
#118=REPRESENTATION('material name',(#120),#207);
#119=REPRESENTATION('density',(#115),#207);
#120=DESCRIPTIVE_REPRESENTATION_ITEM('Edelstahl AISI 304',
'Edelstahl AISI 304');
#121=PROPERTY_DEFINITION('material property','material name',#217);
#122=PROPERTY_DEFINITION('material property','density of part',#217);
#123=DATE_TIME_ROLE('creation_date');
#124=APPLIED_DATE_AND_TIME_ASSIGNMENT(#125,#123,(#217));
#125=DATE_AND_TIME(#126,#127);
#126=CALENDAR_DATE(2021,16,4);
#127=LOCAL_TIME(0,0,0.,#128);
#128=COORDINATED_UNIVERSAL_TIME_OFFSET(0,0,.BEHIND.);
#129=AXIS2_PLACEMENT_3D('placement',#178,#144,#145);
#130=AXIS2_PLACEMENT_3D('',#179,#146,#147);
#131=AXIS2_PLACEMENT_3D('',#181,#148,#149);
#132=AXIS2_PLACEMENT_3D('',#185,#151,#152);
#133=AXIS2_PLACEMENT_3D('',#186,#153,#154);
#134=AXIS2_PLACEMENT_3D('',#187,#155,#156);
#135=AXIS2_PLACEMENT_3D('',#190,#158,#159);
#136=AXIS2_PLACEMENT_3D('',#191,#160,#161);
#137=AXIS2_PLACEMENT_3D('',#193,#162,#163);
#138=AXIS2_PLACEMENT_3D('',#195,#164,#165);
#139=AXIS2_PLACEMENT_3D('',#196,#166,#167);
#140=AXIS2_PLACEMENT_3D('',#199,#169,#170);
#141=AXIS2_PLACEMENT_3D('',#200,#171,#172);
#142=AXIS2_PLACEMENT_3D('',#203,#174,#175);
#143=AXIS2_PLACEMENT_3D('',#204,#176,#177);
#144=DIRECTION('axis',(0.,0.,1.));
#145=DIRECTION('refdir',(1.,0.,0.));
#146=DIRECTION('center_axis',(0.,-1.,0.));
#147=DIRECTION('ref_axis',(1.,0.,0.));
#148=DIRECTION('center_axis',(0.,-1.,0.));
#149=DIRECTION('ref_axis',(1.,0.,0.));
#150=DIRECTION('',(-0.707106781186546,-0.707106781186549,8.65956056235491E-17));
#151=DIRECTION('center_axis',(0.,1.,0.));
#152=DIRECTION('ref_axis',(1.,0.,0.));
#153=DIRECTION('center_axis',(0.,1.,0.));
#154=DIRECTION('ref_axis',(1.,0.,0.));
#155=DIRECTION('center_axis',(0.,1.,0.));
#156=DIRECTION('ref_axis',(-1.,0.,0.));
#157=DIRECTION('',(0.,-1.,0.));
#158=DIRECTION('center_axis',(0.,1.,0.));
#159=DIRECTION('ref_axis',(-1.,0.,0.));
#160=DIRECTION('center_axis',(0.,1.,0.));
#161=DIRECTION('ref_axis',(0.,0.,1.));
#162=DIRECTION('center_axis',(0.,-1.,0.));
#163=DIRECTION('ref_axis',(1.,0.,0.));
#164=DIRECTION('center_axis',(0.,-1.,0.));
#165=DIRECTION('ref_axis',(1.,0.,0.));
#166=DIRECTION('center_axis',(0.,1.,0.));
#167=DIRECTION('ref_axis',(1.,0.,0.));
#168=DIRECTION('',(0.,-1.,0.));
#169=DIRECTION('center_axis',(0.,-1.,0.));
#170=DIRECTION('ref_axis',(1.,0.,0.));
#171=DIRECTION('center_axis',(0.,1.,0.));
#172=DIRECTION('ref_axis',(1.,0.,0.));
#173=DIRECTION('',(0.,-1.,0.));
#174=DIRECTION('center_axis',(0.,-1.,0.));
#175=DIRECTION('ref_axis',(1.,0.,0.));
#176=DIRECTION('center_axis',(0.,1.,0.));
#177=DIRECTION('ref_axis',(0.,0.,1.));
#178=CARTESIAN_POINT('',(0.,0.,0.));
#179=CARTESIAN_POINT('Origin',(0.,7.75,0.));
#180=CARTESIAN_POINT('',(-59.5,8.,-7.28664845492675E-15));
#181=CARTESIAN_POINT('Origin',(0.,8.,0.));
#182=CARTESIAN_POINT('',(-60.,7.5,7.34788079488412E-15));
#183=CARTESIAN_POINT('',(-59.75,7.75,7.31726462490543E-15));
#184=CARTESIAN_POINT('',(60.,7.5,-7.34788079488412E-15));
#185=CARTESIAN_POINT('Origin',(0.,7.5,0.));
#186=CARTESIAN_POINT('Origin',(0.,7.5,0.));
#187=CARTESIAN_POINT('Origin',(0.,0.,0.));
#188=CARTESIAN_POINT('',(60.,0.,-7.34788079488412E-15));
#189=CARTESIAN_POINT('',(60.,0.,-7.34788079488412E-15));
#190=CARTESIAN_POINT('Origin',(0.,0.,0.));
#191=CARTESIAN_POINT('Origin',(0.,8.,0.));
#192=CARTESIAN_POINT('',(-50.,8.,9.18485099360515E-16));
#193=CARTESIAN_POINT('Origin',(-42.5,8.,0.));
#194=CARTESIAN_POINT('',(35.,8.,9.18485099360515E-16));
#195=CARTESIAN_POINT('Origin',(42.5,8.,0.));
#196=CARTESIAN_POINT('Origin',(-42.5,0.,0.));
#197=CARTESIAN_POINT('',(-50.,0.,9.18485099360515E-16));
#198=CARTESIAN_POINT('',(-50.,0.,9.18485099360515E-16));
#199=CARTESIAN_POINT('Origin',(-42.5,0.,0.));
#200=CARTESIAN_POINT('Origin',(42.5,0.,0.));
#201=CARTESIAN_POINT('',(35.,0.,9.18485099360515E-16));
#202=CARTESIAN_POINT('',(35.,0.,9.18485099360515E-16));
#203=CARTESIAN_POINT('Origin',(42.5,0.,0.));
#204=CARTESIAN_POINT('Origin',(0.,0.,0.));
#205=UNCERTAINTY_MEASURE_WITH_UNIT(LENGTH_MEASURE(0.01),#209,
'DISTANCE_ACCURACY_VALUE',
'Maximum model space distance between geometric entities at asserted c
onnectivities');
#206=UNCERTAINTY_MEASURE_WITH_UNIT(LENGTH_MEASURE(0.01),#209,
'DISTANCE_ACCURACY_VALUE',
'Maximum model space distance between geometric entities at asserted c
onnectivities');
#207=(
GEOMETRIC_REPRESENTATION_CONTEXT(3)
GLOBAL_UNCERTAINTY_ASSIGNED_CONTEXT((#205))
GLOBAL_UNIT_ASSIGNED_CONTEXT((#209,#211,#212))
REPRESENTATION_CONTEXT('','3D')
);
#208=(
GEOMETRIC_REPRESENTATION_CONTEXT(3)
GLOBAL_UNCERTAINTY_ASSIGNED_CONTEXT((#206))
GLOBAL_UNIT_ASSIGNED_CONTEXT((#209,#211,#212))
REPRESENTATION_CONTEXT('','3D')
);
#209=(
LENGTH_UNIT()
NAMED_UNIT(*)
SI_UNIT(.MILLI.,.METRE.)
);
#210=(
LENGTH_UNIT()
NAMED_UNIT(*)
SI_UNIT(.CENTI.,.METRE.)
);
#211=(
NAMED_UNIT(*)
PLANE_ANGLE_UNIT()
SI_UNIT($,.RADIAN.)
);
#212=(
NAMED_UNIT(*)
SI_UNIT($,.STERADIAN.)
SOLID_ANGLE_UNIT()
);
#213=SHAPE_DEFINITION_REPRESENTATION(#214,#215);
#214=PRODUCT_DEFINITION_SHAPE('',$,#217);
#215=SHAPE_REPRESENTATION('',(#129),#207);
#216=PRODUCT_DEFINITION_CONTEXT('part definition',#221,'design');
#217=PRODUCT_DEFINITION('43803','43803',#218,#216);
#218=PRODUCT_DEFINITION_FORMATION('',$,#223);
#219=PRODUCT_RELATED_PRODUCT_CATEGORY('43803','43803',(#223));
#220=APPLICATION_PROTOCOL_DEFINITION('international standard',
'automotive_design',2009,#221);
#221=APPLICATION_CONTEXT(
'Core Data for Automotive Mechanical Design Process');
#222=PRODUCT_CONTEXT('part definition',#221,'mechanical');
#223=PRODUCT('43803','43803',$,(#222));
#224=PRESENTATION_STYLE_ASSIGNMENT((#225));
#225=SURFACE_STYLE_USAGE(.BOTH.,#228);
#226=SURFACE_STYLE_RENDERING_WITH_PROPERTIES($,#232,(#227));
#227=SURFACE_STYLE_TRANSPARENT(0.);
#228=SURFACE_SIDE_STYLE('',(#229,#226));
#229=SURFACE_STYLE_FILL_AREA(#230);
#230=FILL_AREA_STYLE('',(#231));
#231=FILL_AREA_STYLE_COLOUR('',#232);
#232=COLOUR_RGB('',0.956862745098039,0.956862745098039,0.956862745098039);
ENDSEC;
END-ISO-10303-21;
