ISO-10303-21;
HEADER;
/* Generated by software containing ST-Developer
 * from STEP Tools, Inc. (www.steptools.com) 
 */

FILE_DESCRIPTION(
/* description */ (''),
/* implementation_level */ '2;1');

FILE_NAME(
/* name */ '44009.ipt.step',
/* time_stamp */ '2022-07-20T08:04:44+02:00',
/* author */ ('Nutzer'),
/* organization */ (''),
/* preprocessor_version */ 'ST-DEVELOPER v19.2',
/* originating_system */ 'Autodesk Inventor 2023',
/* authorisation */ '');

FILE_SCHEMA (('AUTOMOTIVE_DESIGN { 1 0 10303 214 3 1 1 }'));
ENDSEC;

DATA;
#10=MECHANICAL_DESIGN_GEOMETRIC_PRESENTATION_REPRESENTATION('',(#13),#515);
#11=SHAPE_REPRESENTATION_RELATIONSHIP('SRR','None',#522,#12);
#12=ADVANCED_BREP_SHAPE_REPRESENTATION('',(#14),#514);
#13=STYLED_ITEM('',(#531),#14);
#14=MANIFOLD_SOLID_BREP('Volumenk\X\F6rper1',#294);
#15=FACE_BOUND('',#58,.T.);
#16=FACE_BOUND('',#59,.T.);
#17=FACE_BOUND('',#60,.T.);
#18=FACE_BOUND('',#62,.T.);
#19=FACE_BOUND('',#63,.T.);
#20=FACE_BOUND('',#64,.T.);
#21=PLANE('',#320);
#22=PLANE('',#324);
#23=PLANE('',#331);
#24=PLANE('',#335);
#25=PLANE('',#339);
#26=PLANE('',#343);
#27=PLANE('',#344);
#28=PLANE('',#345);
#29=FACE_OUTER_BOUND('',#44,.T.);
#30=FACE_OUTER_BOUND('',#45,.T.);
#31=FACE_OUTER_BOUND('',#46,.T.);
#32=FACE_OUTER_BOUND('',#47,.T.);
#33=FACE_OUTER_BOUND('',#48,.T.);
#34=FACE_OUTER_BOUND('',#49,.T.);
#35=FACE_OUTER_BOUND('',#50,.T.);
#36=FACE_OUTER_BOUND('',#51,.T.);
#37=FACE_OUTER_BOUND('',#52,.T.);
#38=FACE_OUTER_BOUND('',#53,.T.);
#39=FACE_OUTER_BOUND('',#54,.T.);
#40=FACE_OUTER_BOUND('',#55,.T.);
#41=FACE_OUTER_BOUND('',#56,.T.);
#42=FACE_OUTER_BOUND('',#57,.T.);
#43=FACE_OUTER_BOUND('',#61,.T.);
#44=EDGE_LOOP('',(#194,#195,#196,#197));
#45=EDGE_LOOP('',(#198,#199,#200,#201));
#46=EDGE_LOOP('',(#202,#203,#204,#205));
#47=EDGE_LOOP('',(#206,#207,#208,#209));
#48=EDGE_LOOP('',(#210,#211,#212,#213));
#49=EDGE_LOOP('',(#214,#215,#216,#217));
#50=EDGE_LOOP('',(#218,#219,#220,#221));
#51=EDGE_LOOP('',(#222,#223,#224,#225));
#52=EDGE_LOOP('',(#226,#227,#228,#229));
#53=EDGE_LOOP('',(#230,#231,#232,#233));
#54=EDGE_LOOP('',(#234,#235,#236,#237));
#55=EDGE_LOOP('',(#238,#239,#240,#241));
#56=EDGE_LOOP('',(#242,#243,#244,#245));
#57=EDGE_LOOP('',(#246,#247,#248,#249));
#58=EDGE_LOOP('',(#250,#251,#252,#253));
#59=EDGE_LOOP('',(#254));
#60=EDGE_LOOP('',(#255,#256,#257,#258));
#61=EDGE_LOOP('',(#259,#260,#261,#262));
#62=EDGE_LOOP('',(#263,#264,#265,#266));
#63=EDGE_LOOP('',(#267));
#64=EDGE_LOOP('',(#268,#269,#270,#271));
#65=LINE('',#437,#90);
#66=LINE('',#440,#91);
#67=LINE('',#443,#92);
#68=LINE('',#445,#93);
#69=LINE('',#446,#94);
#70=LINE('',#452,#95);
#71=LINE('',#454,#96);
#72=LINE('',#455,#97);
#73=LINE('',#460,#98);
#74=LINE('',#467,#99);
#75=LINE('',#470,#100);
#76=LINE('',#473,#101);
#77=LINE('',#475,#102);
#78=LINE('',#476,#103);
#79=LINE('',#482,#104);
#80=LINE('',#484,#105);
#81=LINE('',#485,#106);
#82=LINE('',#491,#107);
#83=LINE('',#494,#108);
#84=LINE('',#497,#109);
#85=LINE('',#499,#110);
#86=LINE('',#500,#111);
#87=LINE('',#506,#112);
#88=LINE('',#508,#113);
#89=LINE('',#509,#114);
#90=VECTOR('',#352,10.);
#91=VECTOR('',#355,10.);
#92=VECTOR('',#358,10.);
#93=VECTOR('',#359,10.);
#94=VECTOR('',#360,10.);
#95=VECTOR('',#367,10.);
#96=VECTOR('',#370,10.);
#97=VECTOR('',#371,10.);
#98=VECTOR('',#376,6.25);
#99=VECTOR('',#383,10.);
#100=VECTOR('',#386,10.);
#101=VECTOR('',#389,10.);
#102=VECTOR('',#390,10.);
#103=VECTOR('',#391,10.);
#104=VECTOR('',#398,10.);
#105=VECTOR('',#401,10.);
#106=VECTOR('',#402,10.);
#107=VECTOR('',#407,10.);
#108=VECTOR('',#410,10.);
#109=VECTOR('',#413,10.);
#110=VECTOR('',#414,10.);
#111=VECTOR('',#415,10.);
#112=VECTOR('',#422,10.);
#113=VECTOR('',#425,10.);
#114=VECTOR('',#426,10.);
#115=CIRCLE('',#318,5.5);
#116=CIRCLE('',#319,5.5);
#117=CIRCLE('',#322,5.5);
#118=CIRCLE('',#323,5.5);
#119=CIRCLE('',#326,6.25);
#120=CIRCLE('',#327,6.25);
#121=CIRCLE('',#329,5.50000000000001);
#122=CIRCLE('',#330,5.50000000000001);
#123=CIRCLE('',#333,5.50000000000001);
#124=CIRCLE('',#334,5.50000000000001);
#125=CIRCLE('',#337,60.);
#126=CIRCLE('',#338,60.);
#127=CIRCLE('',#341,60.);
#128=CIRCLE('',#342,60.);
#129=VERTEX_POINT('',#433);
#130=VERTEX_POINT('',#434);
#131=VERTEX_POINT('',#436);
#132=VERTEX_POINT('',#438);
#133=VERTEX_POINT('',#442);
#134=VERTEX_POINT('',#444);
#135=VERTEX_POINT('',#448);
#136=VERTEX_POINT('',#450);
#137=VERTEX_POINT('',#457);
#138=VERTEX_POINT('',#459);
#139=VERTEX_POINT('',#463);
#140=VERTEX_POINT('',#464);
#141=VERTEX_POINT('',#466);
#142=VERTEX_POINT('',#468);
#143=VERTEX_POINT('',#472);
#144=VERTEX_POINT('',#474);
#145=VERTEX_POINT('',#478);
#146=VERTEX_POINT('',#480);
#147=VERTEX_POINT('',#487);
#148=VERTEX_POINT('',#488);
#149=VERTEX_POINT('',#490);
#150=VERTEX_POINT('',#492);
#151=VERTEX_POINT('',#496);
#152=VERTEX_POINT('',#498);
#153=VERTEX_POINT('',#502);
#154=VERTEX_POINT('',#504);
#155=EDGE_CURVE('',#129,#130,#115,.T.);
#156=EDGE_CURVE('',#130,#131,#65,.T.);
#157=EDGE_CURVE('',#132,#131,#116,.T.);
#158=EDGE_CURVE('',#129,#132,#66,.T.);
#159=EDGE_CURVE('',#133,#129,#67,.T.);
#160=EDGE_CURVE('',#134,#132,#68,.T.);
#161=EDGE_CURVE('',#133,#134,#69,.T.);
#162=EDGE_CURVE('',#135,#133,#117,.T.);
#163=EDGE_CURVE('',#136,#134,#118,.T.);
#164=EDGE_CURVE('',#135,#136,#70,.T.);
#165=EDGE_CURVE('',#130,#135,#71,.T.);
#166=EDGE_CURVE('',#131,#136,#72,.T.);
#167=EDGE_CURVE('',#137,#137,#119,.T.);
#168=EDGE_CURVE('',#137,#138,#73,.T.);
#169=EDGE_CURVE('',#138,#138,#120,.T.);
#170=EDGE_CURVE('',#139,#140,#121,.T.);
#171=EDGE_CURVE('',#140,#141,#74,.T.);
#172=EDGE_CURVE('',#142,#141,#122,.T.);
#173=EDGE_CURVE('',#139,#142,#75,.T.);
#174=EDGE_CURVE('',#143,#139,#76,.T.);
#175=EDGE_CURVE('',#144,#142,#77,.T.);
#176=EDGE_CURVE('',#143,#144,#78,.T.);
#177=EDGE_CURVE('',#145,#143,#123,.T.);
#178=EDGE_CURVE('',#146,#144,#124,.T.);
#179=EDGE_CURVE('',#145,#146,#79,.T.);
#180=EDGE_CURVE('',#140,#145,#80,.T.);
#181=EDGE_CURVE('',#141,#146,#81,.T.);
#182=EDGE_CURVE('',#147,#148,#125,.T.);
#183=EDGE_CURVE('',#148,#149,#82,.T.);
#184=EDGE_CURVE('',#150,#149,#126,.T.);
#185=EDGE_CURVE('',#147,#150,#83,.T.);
#186=EDGE_CURVE('',#151,#147,#84,.T.);
#187=EDGE_CURVE('',#152,#150,#85,.T.);
#188=EDGE_CURVE('',#151,#152,#86,.T.);
#189=EDGE_CURVE('',#153,#151,#127,.T.);
#190=EDGE_CURVE('',#154,#152,#128,.T.);
#191=EDGE_CURVE('',#153,#154,#87,.T.);
#192=EDGE_CURVE('',#148,#153,#88,.T.);
#193=EDGE_CURVE('',#149,#154,#89,.T.);
#194=ORIENTED_EDGE('',*,*,#155,.T.);
#195=ORIENTED_EDGE('',*,*,#156,.T.);
#196=ORIENTED_EDGE('',*,*,#157,.F.);
#197=ORIENTED_EDGE('',*,*,#158,.F.);
#198=ORIENTED_EDGE('',*,*,#159,.T.);
#199=ORIENTED_EDGE('',*,*,#158,.T.);
#200=ORIENTED_EDGE('',*,*,#160,.F.);
#201=ORIENTED_EDGE('',*,*,#161,.F.);
#202=ORIENTED_EDGE('',*,*,#162,.T.);
#203=ORIENTED_EDGE('',*,*,#161,.T.);
#204=ORIENTED_EDGE('',*,*,#163,.F.);
#205=ORIENTED_EDGE('',*,*,#164,.F.);
#206=ORIENTED_EDGE('',*,*,#165,.T.);
#207=ORIENTED_EDGE('',*,*,#164,.T.);
#208=ORIENTED_EDGE('',*,*,#166,.F.);
#209=ORIENTED_EDGE('',*,*,#156,.F.);
#210=ORIENTED_EDGE('',*,*,#167,.F.);
#211=ORIENTED_EDGE('',*,*,#168,.T.);
#212=ORIENTED_EDGE('',*,*,#169,.T.);
#213=ORIENTED_EDGE('',*,*,#168,.F.);
#214=ORIENTED_EDGE('',*,*,#170,.T.);
#215=ORIENTED_EDGE('',*,*,#171,.T.);
#216=ORIENTED_EDGE('',*,*,#172,.F.);
#217=ORIENTED_EDGE('',*,*,#173,.F.);
#218=ORIENTED_EDGE('',*,*,#174,.T.);
#219=ORIENTED_EDGE('',*,*,#173,.T.);
#220=ORIENTED_EDGE('',*,*,#175,.F.);
#221=ORIENTED_EDGE('',*,*,#176,.F.);
#222=ORIENTED_EDGE('',*,*,#177,.T.);
#223=ORIENTED_EDGE('',*,*,#176,.T.);
#224=ORIENTED_EDGE('',*,*,#178,.F.);
#225=ORIENTED_EDGE('',*,*,#179,.F.);
#226=ORIENTED_EDGE('',*,*,#180,.T.);
#227=ORIENTED_EDGE('',*,*,#179,.T.);
#228=ORIENTED_EDGE('',*,*,#181,.F.);
#229=ORIENTED_EDGE('',*,*,#171,.F.);
#230=ORIENTED_EDGE('',*,*,#182,.T.);
#231=ORIENTED_EDGE('',*,*,#183,.T.);
#232=ORIENTED_EDGE('',*,*,#184,.F.);
#233=ORIENTED_EDGE('',*,*,#185,.F.);
#234=ORIENTED_EDGE('',*,*,#186,.T.);
#235=ORIENTED_EDGE('',*,*,#185,.T.);
#236=ORIENTED_EDGE('',*,*,#187,.F.);
#237=ORIENTED_EDGE('',*,*,#188,.F.);
#238=ORIENTED_EDGE('',*,*,#189,.T.);
#239=ORIENTED_EDGE('',*,*,#188,.T.);
#240=ORIENTED_EDGE('',*,*,#190,.F.);
#241=ORIENTED_EDGE('',*,*,#191,.F.);
#242=ORIENTED_EDGE('',*,*,#192,.T.);
#243=ORIENTED_EDGE('',*,*,#191,.T.);
#244=ORIENTED_EDGE('',*,*,#193,.F.);
#245=ORIENTED_EDGE('',*,*,#183,.F.);
#246=ORIENTED_EDGE('',*,*,#193,.T.);
#247=ORIENTED_EDGE('',*,*,#190,.T.);
#248=ORIENTED_EDGE('',*,*,#187,.T.);
#249=ORIENTED_EDGE('',*,*,#184,.T.);
#250=ORIENTED_EDGE('',*,*,#181,.T.);
#251=ORIENTED_EDGE('',*,*,#178,.T.);
#252=ORIENTED_EDGE('',*,*,#175,.T.);
#253=ORIENTED_EDGE('',*,*,#172,.T.);
#254=ORIENTED_EDGE('',*,*,#167,.T.);
#255=ORIENTED_EDGE('',*,*,#166,.T.);
#256=ORIENTED_EDGE('',*,*,#163,.T.);
#257=ORIENTED_EDGE('',*,*,#160,.T.);
#258=ORIENTED_EDGE('',*,*,#157,.T.);
#259=ORIENTED_EDGE('',*,*,#192,.F.);
#260=ORIENTED_EDGE('',*,*,#182,.F.);
#261=ORIENTED_EDGE('',*,*,#186,.F.);
#262=ORIENTED_EDGE('',*,*,#189,.F.);
#263=ORIENTED_EDGE('',*,*,#180,.F.);
#264=ORIENTED_EDGE('',*,*,#170,.F.);
#265=ORIENTED_EDGE('',*,*,#174,.F.);
#266=ORIENTED_EDGE('',*,*,#177,.F.);
#267=ORIENTED_EDGE('',*,*,#169,.F.);
#268=ORIENTED_EDGE('',*,*,#165,.F.);
#269=ORIENTED_EDGE('',*,*,#155,.F.);
#270=ORIENTED_EDGE('',*,*,#159,.F.);
#271=ORIENTED_EDGE('',*,*,#162,.F.);
#272=CYLINDRICAL_SURFACE('',#317,5.5);
#273=CYLINDRICAL_SURFACE('',#321,5.5);
#274=CYLINDRICAL_SURFACE('',#325,6.25);
#275=CYLINDRICAL_SURFACE('',#328,5.50000000000001);
#276=CYLINDRICAL_SURFACE('',#332,5.50000000000001);
#277=CYLINDRICAL_SURFACE('',#336,60.);
#278=CYLINDRICAL_SURFACE('',#340,60.);
#279=ADVANCED_FACE('',(#29),#272,.F.);
#280=ADVANCED_FACE('',(#30),#21,.T.);
#281=ADVANCED_FACE('',(#31),#273,.F.);
#282=ADVANCED_FACE('',(#32),#22,.T.);
#283=ADVANCED_FACE('',(#33),#274,.F.);
#284=ADVANCED_FACE('',(#34),#275,.F.);
#285=ADVANCED_FACE('',(#35),#23,.T.);
#286=ADVANCED_FACE('',(#36),#276,.F.);
#287=ADVANCED_FACE('',(#37),#24,.T.);
#288=ADVANCED_FACE('',(#38),#277,.T.);
#289=ADVANCED_FACE('',(#39),#25,.T.);
#290=ADVANCED_FACE('',(#40),#278,.T.);
#291=ADVANCED_FACE('',(#41),#26,.T.);
#292=ADVANCED_FACE('',(#42,#15,#16,#17),#27,.T.);
#293=ADVANCED_FACE('',(#43,#18,#19,#20),#28,.F.);
#294=CLOSED_SHELL('',(#279,#280,#281,#282,#283,#284,#285,#286,#287,#288,
#289,#290,#291,#292,#293));
#295=DERIVED_UNIT_ELEMENT(#298,1.);
#296=DERIVED_UNIT_ELEMENT(#517,-3.);
#297=DIMENSIONAL_EXPONENTS(0.,1.,0.,0.,0.,0.,0.);
#298=(
CONVERSION_BASED_UNIT('gram',#300)
MASS_UNIT()
NAMED_UNIT(#297)
);
#299=(
MASS_UNIT()
NAMED_UNIT(*)
SI_UNIT(.KILO.,.GRAM.)
);
#300=MASS_MEASURE_WITH_UNIT(MASS_MEASURE(0.001),#299);
#301=DERIVED_UNIT((#295,#296));
#302=MEASURE_REPRESENTATION_ITEM('density measure',
POSITIVE_RATIO_MEASURE(7.85),#301);
#303=PROPERTY_DEFINITION_REPRESENTATION(#308,#305);
#304=PROPERTY_DEFINITION_REPRESENTATION(#309,#306);
#305=REPRESENTATION('material name',(#307),#514);
#306=REPRESENTATION('density',(#302),#514);
#307=DESCRIPTIVE_REPRESENTATION_ITEM('Stahl, Guss','Stahl, Guss');
#308=PROPERTY_DEFINITION('material property','material name',#524);
#309=PROPERTY_DEFINITION('material property','density of part',#524);
#310=DATE_TIME_ROLE('creation_date');
#311=APPLIED_DATE_AND_TIME_ASSIGNMENT(#312,#310,(#524));
#312=DATE_AND_TIME(#313,#314);
#313=CALENDAR_DATE(2021,21,4);
#314=LOCAL_TIME(0,0,0.,#315);
#315=COORDINATED_UNIVERSAL_TIME_OFFSET(0,0,.BEHIND.);
#316=AXIS2_PLACEMENT_3D('placement',#431,#346,#347);
#317=AXIS2_PLACEMENT_3D('',#432,#348,#349);
#318=AXIS2_PLACEMENT_3D('',#435,#350,#351);
#319=AXIS2_PLACEMENT_3D('',#439,#353,#354);
#320=AXIS2_PLACEMENT_3D('',#441,#356,#357);
#321=AXIS2_PLACEMENT_3D('',#447,#361,#362);
#322=AXIS2_PLACEMENT_3D('',#449,#363,#364);
#323=AXIS2_PLACEMENT_3D('',#451,#365,#366);
#324=AXIS2_PLACEMENT_3D('',#453,#368,#369);
#325=AXIS2_PLACEMENT_3D('',#456,#372,#373);
#326=AXIS2_PLACEMENT_3D('',#458,#374,#375);
#327=AXIS2_PLACEMENT_3D('',#461,#377,#378);
#328=AXIS2_PLACEMENT_3D('',#462,#379,#380);
#329=AXIS2_PLACEMENT_3D('',#465,#381,#382);
#330=AXIS2_PLACEMENT_3D('',#469,#384,#385);
#331=AXIS2_PLACEMENT_3D('',#471,#387,#388);
#332=AXIS2_PLACEMENT_3D('',#477,#392,#393);
#333=AXIS2_PLACEMENT_3D('',#479,#394,#395);
#334=AXIS2_PLACEMENT_3D('',#481,#396,#397);
#335=AXIS2_PLACEMENT_3D('',#483,#399,#400);
#336=AXIS2_PLACEMENT_3D('',#486,#403,#404);
#337=AXIS2_PLACEMENT_3D('',#489,#405,#406);
#338=AXIS2_PLACEMENT_3D('',#493,#408,#409);
#339=AXIS2_PLACEMENT_3D('',#495,#411,#412);
#340=AXIS2_PLACEMENT_3D('',#501,#416,#417);
#341=AXIS2_PLACEMENT_3D('',#503,#418,#419);
#342=AXIS2_PLACEMENT_3D('',#505,#420,#421);
#343=AXIS2_PLACEMENT_3D('',#507,#423,#424);
#344=AXIS2_PLACEMENT_3D('',#510,#427,#428);
#345=AXIS2_PLACEMENT_3D('',#511,#429,#430);
#346=DIRECTION('axis',(0.,0.,1.));
#347=DIRECTION('refdir',(1.,0.,0.));
#348=DIRECTION('center_axis',(0.,1.,0.));
#349=DIRECTION('ref_axis',(1.61486985400023E-15,0.,1.));
#350=DIRECTION('center_axis',(0.,-1.,0.));
#351=DIRECTION('ref_axis',(1.61486985400023E-15,0.,1.));
#352=DIRECTION('',(0.,1.,0.));
#353=DIRECTION('center_axis',(0.,-1.,0.));
#354=DIRECTION('ref_axis',(1.61486985400023E-15,0.,1.));
#355=DIRECTION('',(0.,1.,0.));
#356=DIRECTION('center_axis',(-9.86864910777918E-16,0.,-1.));
#357=DIRECTION('ref_axis',(-1.,0.,9.86864910777918E-16));
#358=DIRECTION('',(-1.,0.,9.86864910777918E-16));
#359=DIRECTION('',(-1.,0.,9.86864910777918E-16));
#360=DIRECTION('',(0.,1.,0.));
#361=DIRECTION('center_axis',(0.,1.,0.));
#362=DIRECTION('ref_axis',(-8.07434927000114E-16,0.,-1.));
#363=DIRECTION('center_axis',(0.,-1.,0.));
#364=DIRECTION('ref_axis',(-8.07434927000114E-16,0.,-1.));
#365=DIRECTION('center_axis',(0.,-1.,0.));
#366=DIRECTION('ref_axis',(-8.07434927000114E-16,0.,-1.));
#367=DIRECTION('',(0.,1.,0.));
#368=DIRECTION('center_axis',(9.86864910777918E-16,0.,1.));
#369=DIRECTION('ref_axis',(1.,0.,-9.86864910777918E-16));
#370=DIRECTION('',(1.,0.,-9.86864910777918E-16));
#371=DIRECTION('',(1.,0.,-9.86864910777918E-16));
#372=DIRECTION('center_axis',(0.,1.,0.));
#373=DIRECTION('ref_axis',(1.,0.,0.));
#374=DIRECTION('center_axis',(0.,-1.,0.));
#375=DIRECTION('ref_axis',(1.,0.,0.));
#376=DIRECTION('',(0.,-1.,0.));
#377=DIRECTION('center_axis',(0.,-1.,0.));
#378=DIRECTION('ref_axis',(1.,0.,0.));
#379=DIRECTION('center_axis',(0.,1.,0.));
#380=DIRECTION('ref_axis',(0.,0.,1.));
#381=DIRECTION('center_axis',(0.,-1.,0.));
#382=DIRECTION('ref_axis',(0.,0.,1.));
#383=DIRECTION('',(0.,1.,0.));
#384=DIRECTION('center_axis',(0.,-1.,0.));
#385=DIRECTION('ref_axis',(0.,0.,1.));
#386=DIRECTION('',(0.,1.,0.));
#387=DIRECTION('center_axis',(0.,0.,-1.));
#388=DIRECTION('ref_axis',(-1.,0.,0.));
#389=DIRECTION('',(-1.,0.,0.));
#390=DIRECTION('',(-1.,0.,0.));
#391=DIRECTION('',(0.,1.,0.));
#392=DIRECTION('center_axis',(0.,1.,0.));
#393=DIRECTION('ref_axis',(0.,0.,-1.));
#394=DIRECTION('center_axis',(0.,-1.,0.));
#395=DIRECTION('ref_axis',(0.,0.,-1.));
#396=DIRECTION('center_axis',(0.,-1.,0.));
#397=DIRECTION('ref_axis',(0.,0.,-1.));
#398=DIRECTION('',(0.,1.,0.));
#399=DIRECTION('center_axis',(0.,0.,1.));
#400=DIRECTION('ref_axis',(1.,0.,0.));
#401=DIRECTION('',(1.,0.,0.));
#402=DIRECTION('',(1.,0.,0.));
#403=DIRECTION('center_axis',(0.,1.,0.));
#404=DIRECTION('ref_axis',(0.666666666666666,0.,-0.74535599249993));
#405=DIRECTION('center_axis',(0.,1.,0.));
#406=DIRECTION('ref_axis',(0.666666666666666,0.,-0.74535599249993));
#407=DIRECTION('',(0.,1.,0.));
#408=DIRECTION('center_axis',(0.,1.,0.));
#409=DIRECTION('ref_axis',(0.666666666666666,0.,-0.74535599249993));
#410=DIRECTION('',(0.,1.,0.));
#411=DIRECTION('center_axis',(1.,0.,-2.82791881796137E-18));
#412=DIRECTION('ref_axis',(-2.82791881796137E-18,0.,-1.));
#413=DIRECTION('',(-2.82791881796137E-18,0.,-1.));
#414=DIRECTION('',(-2.82791881796137E-18,0.,-1.));
#415=DIRECTION('',(0.,1.,0.));
#416=DIRECTION('center_axis',(0.,1.,0.));
#417=DIRECTION('ref_axis',(-0.666666666666665,0.,0.745355992499931));
#418=DIRECTION('center_axis',(0.,1.,0.));
#419=DIRECTION('ref_axis',(-0.666666666666665,0.,0.745355992499931));
#420=DIRECTION('center_axis',(0.,1.,0.));
#421=DIRECTION('ref_axis',(-0.666666666666665,0.,0.745355992499931));
#422=DIRECTION('',(0.,1.,0.));
#423=DIRECTION('center_axis',(-1.,0.,9.93013661298908E-16));
#424=DIRECTION('ref_axis',(9.93013661298908E-16,0.,1.));
#425=DIRECTION('',(9.93013661298908E-16,0.,1.));
#426=DIRECTION('',(9.93013661298908E-16,0.,1.));
#427=DIRECTION('center_axis',(0.,1.,0.));
#428=DIRECTION('ref_axis',(0.,0.,1.));
#429=DIRECTION('center_axis',(0.,1.,0.));
#430=DIRECTION('ref_axis',(0.,0.,1.));
#431=CARTESIAN_POINT('',(0.,0.,0.));
#432=CARTESIAN_POINT('Origin',(-44.5,0.,-4.72135954999581));
#433=CARTESIAN_POINT('',(-44.4999999999999,0.,0.778640450004193));
#434=CARTESIAN_POINT('',(-44.5,0.,-10.2213595499958));
#435=CARTESIAN_POINT('Origin',(-44.5,0.,-4.72135954999581));
#436=CARTESIAN_POINT('',(-44.5,6.,-10.2213595499958));
#437=CARTESIAN_POINT('',(-44.5,0.,-10.2213595499958));
#438=CARTESIAN_POINT('',(-44.4999999999999,6.,0.778640450004193));
#439=CARTESIAN_POINT('Origin',(-44.5,6.,-4.72135954999581));
#440=CARTESIAN_POINT('',(-44.4999999999999,0.,0.778640450004193));
#441=CARTESIAN_POINT('Origin',(-35.5,0.,0.778640450004184));
#442=CARTESIAN_POINT('',(-35.5,0.,0.778640450004184));
#443=CARTESIAN_POINT('',(-35.5,0.,0.778640450004184));
#444=CARTESIAN_POINT('',(-35.5,6.,0.778640450004175));
#445=CARTESIAN_POINT('',(-35.5,6.,0.778640450004184));
#446=CARTESIAN_POINT('',(-35.5,0.,0.778640450004184));
#447=CARTESIAN_POINT('Origin',(-35.5,0.,-4.72135954999582));
#448=CARTESIAN_POINT('',(-35.5,0.,-10.2213595499958));
#449=CARTESIAN_POINT('Origin',(-35.5,0.,-4.72135954999582));
#450=CARTESIAN_POINT('',(-35.5,6.,-10.2213595499958));
#451=CARTESIAN_POINT('Origin',(-35.5,6.,-4.72135954999582));
#452=CARTESIAN_POINT('',(-35.5,0.,-10.2213595499958));
#453=CARTESIAN_POINT('Origin',(-44.5,0.,-10.2213595499958));
#454=CARTESIAN_POINT('',(-44.5,0.,-10.2213595499958));
#455=CARTESIAN_POINT('',(-44.5,6.,-10.2213595499958));
#456=CARTESIAN_POINT('Origin',(-40.,0.,-44.7213595499958));
#457=CARTESIAN_POINT('',(-46.25,6.,-44.7213595499958));
#458=CARTESIAN_POINT('Origin',(-40.,6.,-44.7213595499958));
#459=CARTESIAN_POINT('',(-46.25,0.,-44.7213595499958));
#460=CARTESIAN_POINT('',(-46.25,0.,-44.7213595499958));
#461=CARTESIAN_POINT('Origin',(-40.,0.,-44.7213595499958));
#462=CARTESIAN_POINT('Origin',(-44.5,0.,-84.7213595499958));
#463=CARTESIAN_POINT('',(-44.5,0.,-79.2213595499958));
#464=CARTESIAN_POINT('',(-44.5,0.,-90.2213595499958));
#465=CARTESIAN_POINT('Origin',(-44.5,0.,-84.7213595499958));
#466=CARTESIAN_POINT('',(-44.5,6.,-90.2213595499958));
#467=CARTESIAN_POINT('',(-44.5,0.,-90.2213595499958));
#468=CARTESIAN_POINT('',(-44.5,6.,-79.2213595499958));
#469=CARTESIAN_POINT('Origin',(-44.5,6.,-84.7213595499958));
#470=CARTESIAN_POINT('',(-44.5,0.,-79.2213595499958));
#471=CARTESIAN_POINT('Origin',(-35.5,0.,-79.2213595499958));
#472=CARTESIAN_POINT('',(-35.5,0.,-79.2213595499958));
#473=CARTESIAN_POINT('',(-35.5,0.,-79.2213595499958));
#474=CARTESIAN_POINT('',(-35.5,6.,-79.2213595499958));
#475=CARTESIAN_POINT('',(-35.5,6.,-79.2213595499958));
#476=CARTESIAN_POINT('',(-35.5,0.,-79.2213595499958));
#477=CARTESIAN_POINT('Origin',(-35.5,0.,-84.7213595499958));
#478=CARTESIAN_POINT('',(-35.5,0.,-90.2213595499958));
#479=CARTESIAN_POINT('Origin',(-35.5,0.,-84.7213595499958));
#480=CARTESIAN_POINT('',(-35.5,6.,-90.2213595499958));
#481=CARTESIAN_POINT('Origin',(-35.5,6.,-84.7213595499958));
#482=CARTESIAN_POINT('',(-35.5,0.,-90.2213595499958));
#483=CARTESIAN_POINT('Origin',(-44.5,0.,-90.2213595499958));
#484=CARTESIAN_POINT('',(-44.5,0.,-90.2213595499958));
#485=CARTESIAN_POINT('',(-44.5,6.,-90.2213595499958));
#486=CARTESIAN_POINT('Origin',(-40.,0.,-44.7213595499958));
#487=CARTESIAN_POINT('',(-2.52936748472499E-16,0.,-89.4427190999916));
#488=CARTESIAN_POINT('',(-80.,0.,-89.4427190999916));
#489=CARTESIAN_POINT('Origin',(-40.,0.,-44.7213595499958));
#490=CARTESIAN_POINT('',(-80.,6.,-89.4427190999916));
#491=CARTESIAN_POINT('',(-80.,0.,-89.4427190999916));
#492=CARTESIAN_POINT('',(0.,6.,-89.4427190999916));
#493=CARTESIAN_POINT('Origin',(-40.,6.,-44.7213595499958));
#494=CARTESIAN_POINT('',(-2.52936748472499E-16,0.,-89.4427190999916));
#495=CARTESIAN_POINT('Origin',(0.,0.,0.));
#496=CARTESIAN_POINT('',(0.,0.,0.));
#497=CARTESIAN_POINT('',(0.,0.,0.));
#498=CARTESIAN_POINT('',(0.,6.,0.));
#499=CARTESIAN_POINT('',(0.,6.,0.));
#500=CARTESIAN_POINT('',(0.,0.,0.));
#501=CARTESIAN_POINT('Origin',(-40.,0.,-44.7213595499958));
#502=CARTESIAN_POINT('',(-79.9999999999999,0.,4.89858719658941E-14));
#503=CARTESIAN_POINT('Origin',(-40.,0.,-44.7213595499958));
#504=CARTESIAN_POINT('',(-79.9999999999999,6.,5.32907051820075E-14));
#505=CARTESIAN_POINT('Origin',(-40.,6.,-44.7213595499958));
#506=CARTESIAN_POINT('',(-79.9999999999999,0.,4.89858719658941E-14));
#507=CARTESIAN_POINT('Origin',(-80.,0.,-89.4427190999916));
#508=CARTESIAN_POINT('',(-80.,0.,-89.4427190999916));
#509=CARTESIAN_POINT('',(-80.,6.,-89.4427190999916));
#510=CARTESIAN_POINT('Origin',(-40.,6.,-44.7213595499958));
#511=CARTESIAN_POINT('Origin',(-40.,0.,-44.7213595499958));
#512=UNCERTAINTY_MEASURE_WITH_UNIT(LENGTH_MEASURE(0.01),#516,
'DISTANCE_ACCURACY_VALUE',
'Maximum model space distance between geometric entities at asserted c
onnectivities');
#513=UNCERTAINTY_MEASURE_WITH_UNIT(LENGTH_MEASURE(0.01),#516,
'DISTANCE_ACCURACY_VALUE',
'Maximum model space distance between geometric entities at asserted c
onnectivities');
#514=(
GEOMETRIC_REPRESENTATION_CONTEXT(3)
GLOBAL_UNCERTAINTY_ASSIGNED_CONTEXT((#512))
GLOBAL_UNIT_ASSIGNED_CONTEXT((#516,#518,#519))
REPRESENTATION_CONTEXT('','3D')
);
#515=(
GEOMETRIC_REPRESENTATION_CONTEXT(3)
GLOBAL_UNCERTAINTY_ASSIGNED_CONTEXT((#513))
GLOBAL_UNIT_ASSIGNED_CONTEXT((#516,#518,#519))
REPRESENTATION_CONTEXT('','3D')
);
#516=(
LENGTH_UNIT()
NAMED_UNIT(*)
SI_UNIT(.MILLI.,.METRE.)
);
#517=(
LENGTH_UNIT()
NAMED_UNIT(*)
SI_UNIT(.CENTI.,.METRE.)
);
#518=(
NAMED_UNIT(*)
PLANE_ANGLE_UNIT()
SI_UNIT($,.RADIAN.)
);
#519=(
NAMED_UNIT(*)
SI_UNIT($,.STERADIAN.)
SOLID_ANGLE_UNIT()
);
#520=SHAPE_DEFINITION_REPRESENTATION(#521,#522);
#521=PRODUCT_DEFINITION_SHAPE('',$,#524);
#522=SHAPE_REPRESENTATION('',(#316),#514);
#523=PRODUCT_DEFINITION_CONTEXT('part definition',#528,'design');
#524=PRODUCT_DEFINITION('44009','44009',#525,#523);
#525=PRODUCT_DEFINITION_FORMATION('',$,#530);
#526=PRODUCT_RELATED_PRODUCT_CATEGORY('44009','44009',(#530));
#527=APPLICATION_PROTOCOL_DEFINITION('international standard',
'automotive_design',2009,#528);
#528=APPLICATION_CONTEXT(
'Core Data for Automotive Mechanical Design Process');
#529=PRODUCT_CONTEXT('part definition',#528,'mechanical');
#530=PRODUCT('44009','44009',$,(#529));
#531=PRESENTATION_STYLE_ASSIGNMENT((#532));
#532=SURFACE_STYLE_USAGE(.BOTH.,#535);
#533=SURFACE_STYLE_RENDERING_WITH_PROPERTIES($,#539,(#534));
#534=SURFACE_STYLE_TRANSPARENT(0.);
#535=SURFACE_SIDE_STYLE('',(#536,#533));
#536=SURFACE_STYLE_FILL_AREA(#537);
#537=FILL_AREA_STYLE('',(#538));
#538=FILL_AREA_STYLE_COLOUR('',#539);
#539=COLOUR_RGB('',0.0196078431372549,0.0196078431372549,0.0196078431372549);
ENDSEC;
END-ISO-10303-21;
