ISO-10303-21;
HEADER;
/* Generated by software containing ST-Developer
 * from STEP Tools, Inc. (www.steptools.com) 
 */

FILE_DESCRIPTION(
/* description */ (''),
/* implementation_level */ '2;1');

FILE_NAME(
/* name */ '44015.ipt.step',
/* time_stamp */ '2022-07-20T08:05:02+02:00',
/* author */ ('Nutzer'),
/* organization */ (''),
/* preprocessor_version */ 'ST-DEVELOPER v19.2',
/* originating_system */ 'Autodesk Inventor 2023',
/* authorisation */ '');

FILE_SCHEMA (('AUTOMOTIVE_DESIGN { 1 0 10303 214 3 1 1 }'));
ENDSEC;

DATA;
#10=MECHANICAL_DESIGN_GEOMETRIC_PRESENTATION_REPRESENTATION('',(#13),#313);
#11=SHAPE_REPRESENTATION_RELATIONSHIP('SRR','None',#320,#12);
#12=ADVANCED_BREP_SHAPE_REPRESENTATION('',(#14),#312);
#13=STYLED_ITEM('',(#329),#14);
#14=MANIFOLD_SOLID_BREP('Volumenk\X\F6rper1',#172);
#15=FACE_BOUND('',#42,.T.);
#16=FACE_BOUND('',#43,.T.);
#17=FACE_BOUND('',#44,.T.);
#18=FACE_BOUND('',#46,.T.);
#19=FACE_BOUND('',#47,.T.);
#20=FACE_BOUND('',#48,.T.);
#21=PLANE('',#204);
#22=PLANE('',#208);
#23=PLANE('',#212);
#24=PLANE('',#213);
#25=FACE_OUTER_BOUND('',#34,.T.);
#26=FACE_OUTER_BOUND('',#35,.T.);
#27=FACE_OUTER_BOUND('',#36,.T.);
#28=FACE_OUTER_BOUND('',#37,.T.);
#29=FACE_OUTER_BOUND('',#38,.T.);
#30=FACE_OUTER_BOUND('',#39,.T.);
#31=FACE_OUTER_BOUND('',#40,.T.);
#32=FACE_OUTER_BOUND('',#41,.T.);
#33=FACE_OUTER_BOUND('',#45,.T.);
#34=EDGE_LOOP('',(#116,#117,#118,#119));
#35=EDGE_LOOP('',(#120,#121,#122,#123));
#36=EDGE_LOOP('',(#124,#125,#126,#127));
#37=EDGE_LOOP('',(#128,#129,#130,#131));
#38=EDGE_LOOP('',(#132,#133,#134,#135));
#39=EDGE_LOOP('',(#136,#137,#138,#139));
#40=EDGE_LOOP('',(#140,#141,#142,#143));
#41=EDGE_LOOP('',(#144,#145,#146,#147));
#42=EDGE_LOOP('',(#148));
#43=EDGE_LOOP('',(#149));
#44=EDGE_LOOP('',(#150));
#45=EDGE_LOOP('',(#151,#152,#153,#154));
#46=EDGE_LOOP('',(#155));
#47=EDGE_LOOP('',(#156));
#48=EDGE_LOOP('',(#157));
#49=LINE('',#270,#60);
#50=LINE('',#276,#61);
#51=LINE('',#282,#62);
#52=LINE('',#287,#63);
#53=LINE('',#289,#64);
#54=LINE('',#291,#65);
#55=LINE('',#292,#66);
#56=LINE('',#298,#67);
#57=LINE('',#301,#68);
#58=LINE('',#303,#69);
#59=LINE('',#304,#70);
#60=VECTOR('',#220,7.);
#61=VECTOR('',#227,6.25);
#62=VECTOR('',#234,6.99999999999999);
#63=VECTOR('',#239,10.);
#64=VECTOR('',#240,10.);
#65=VECTOR('',#241,10.);
#66=VECTOR('',#242,10.);
#67=VECTOR('',#249,10.);
#68=VECTOR('',#252,10.);
#69=VECTOR('',#253,10.);
#70=VECTOR('',#254,10.);
#71=CIRCLE('',#196,7.);
#72=CIRCLE('',#197,7.);
#73=CIRCLE('',#199,6.25);
#74=CIRCLE('',#200,6.25);
#75=CIRCLE('',#202,6.99999999999999);
#76=CIRCLE('',#203,6.99999999999999);
#77=CIRCLE('',#206,60.);
#78=CIRCLE('',#207,60.);
#79=CIRCLE('',#210,60.);
#80=CIRCLE('',#211,60.);
#81=VERTEX_POINT('',#267);
#82=VERTEX_POINT('',#269);
#83=VERTEX_POINT('',#273);
#84=VERTEX_POINT('',#275);
#85=VERTEX_POINT('',#279);
#86=VERTEX_POINT('',#281);
#87=VERTEX_POINT('',#285);
#88=VERTEX_POINT('',#286);
#89=VERTEX_POINT('',#288);
#90=VERTEX_POINT('',#290);
#91=VERTEX_POINT('',#294);
#92=VERTEX_POINT('',#296);
#93=VERTEX_POINT('',#300);
#94=VERTEX_POINT('',#302);
#95=EDGE_CURVE('',#81,#81,#71,.T.);
#96=EDGE_CURVE('',#81,#82,#49,.T.);
#97=EDGE_CURVE('',#82,#82,#72,.T.);
#98=EDGE_CURVE('',#83,#83,#73,.T.);
#99=EDGE_CURVE('',#83,#84,#50,.T.);
#100=EDGE_CURVE('',#84,#84,#74,.T.);
#101=EDGE_CURVE('',#85,#85,#75,.T.);
#102=EDGE_CURVE('',#85,#86,#51,.T.);
#103=EDGE_CURVE('',#86,#86,#76,.T.);
#104=EDGE_CURVE('',#87,#88,#52,.T.);
#105=EDGE_CURVE('',#88,#89,#53,.T.);
#106=EDGE_CURVE('',#90,#89,#54,.T.);
#107=EDGE_CURVE('',#87,#90,#55,.T.);
#108=EDGE_CURVE('',#91,#87,#77,.T.);
#109=EDGE_CURVE('',#92,#90,#78,.T.);
#110=EDGE_CURVE('',#91,#92,#56,.T.);
#111=EDGE_CURVE('',#93,#91,#57,.T.);
#112=EDGE_CURVE('',#94,#92,#58,.T.);
#113=EDGE_CURVE('',#93,#94,#59,.T.);
#114=EDGE_CURVE('',#88,#93,#79,.T.);
#115=EDGE_CURVE('',#89,#94,#80,.T.);
#116=ORIENTED_EDGE('',*,*,#95,.F.);
#117=ORIENTED_EDGE('',*,*,#96,.T.);
#118=ORIENTED_EDGE('',*,*,#97,.T.);
#119=ORIENTED_EDGE('',*,*,#96,.F.);
#120=ORIENTED_EDGE('',*,*,#98,.F.);
#121=ORIENTED_EDGE('',*,*,#99,.T.);
#122=ORIENTED_EDGE('',*,*,#100,.T.);
#123=ORIENTED_EDGE('',*,*,#99,.F.);
#124=ORIENTED_EDGE('',*,*,#101,.F.);
#125=ORIENTED_EDGE('',*,*,#102,.T.);
#126=ORIENTED_EDGE('',*,*,#103,.T.);
#127=ORIENTED_EDGE('',*,*,#102,.F.);
#128=ORIENTED_EDGE('',*,*,#104,.T.);
#129=ORIENTED_EDGE('',*,*,#105,.T.);
#130=ORIENTED_EDGE('',*,*,#106,.F.);
#131=ORIENTED_EDGE('',*,*,#107,.F.);
#132=ORIENTED_EDGE('',*,*,#108,.T.);
#133=ORIENTED_EDGE('',*,*,#107,.T.);
#134=ORIENTED_EDGE('',*,*,#109,.F.);
#135=ORIENTED_EDGE('',*,*,#110,.F.);
#136=ORIENTED_EDGE('',*,*,#111,.T.);
#137=ORIENTED_EDGE('',*,*,#110,.T.);
#138=ORIENTED_EDGE('',*,*,#112,.F.);
#139=ORIENTED_EDGE('',*,*,#113,.F.);
#140=ORIENTED_EDGE('',*,*,#114,.T.);
#141=ORIENTED_EDGE('',*,*,#113,.T.);
#142=ORIENTED_EDGE('',*,*,#115,.F.);
#143=ORIENTED_EDGE('',*,*,#105,.F.);
#144=ORIENTED_EDGE('',*,*,#115,.T.);
#145=ORIENTED_EDGE('',*,*,#112,.T.);
#146=ORIENTED_EDGE('',*,*,#109,.T.);
#147=ORIENTED_EDGE('',*,*,#106,.T.);
#148=ORIENTED_EDGE('',*,*,#101,.T.);
#149=ORIENTED_EDGE('',*,*,#98,.T.);
#150=ORIENTED_EDGE('',*,*,#95,.T.);
#151=ORIENTED_EDGE('',*,*,#114,.F.);
#152=ORIENTED_EDGE('',*,*,#104,.F.);
#153=ORIENTED_EDGE('',*,*,#108,.F.);
#154=ORIENTED_EDGE('',*,*,#111,.F.);
#155=ORIENTED_EDGE('',*,*,#103,.F.);
#156=ORIENTED_EDGE('',*,*,#100,.F.);
#157=ORIENTED_EDGE('',*,*,#97,.F.);
#158=CYLINDRICAL_SURFACE('',#195,7.);
#159=CYLINDRICAL_SURFACE('',#198,6.25);
#160=CYLINDRICAL_SURFACE('',#201,6.99999999999999);
#161=CYLINDRICAL_SURFACE('',#205,60.);
#162=CYLINDRICAL_SURFACE('',#209,60.);
#163=ADVANCED_FACE('',(#25),#158,.F.);
#164=ADVANCED_FACE('',(#26),#159,.F.);
#165=ADVANCED_FACE('',(#27),#160,.F.);
#166=ADVANCED_FACE('',(#28),#21,.T.);
#167=ADVANCED_FACE('',(#29),#161,.T.);
#168=ADVANCED_FACE('',(#30),#22,.T.);
#169=ADVANCED_FACE('',(#31),#162,.T.);
#170=ADVANCED_FACE('',(#32,#15,#16,#17),#23,.T.);
#171=ADVANCED_FACE('',(#33,#18,#19,#20),#24,.F.);
#172=CLOSED_SHELL('',(#163,#164,#165,#166,#167,#168,#169,#170,#171));
#173=DERIVED_UNIT_ELEMENT(#176,1.);
#174=DERIVED_UNIT_ELEMENT(#315,-3.);
#175=DIMENSIONAL_EXPONENTS(0.,1.,0.,0.,0.,0.,0.);
#176=(
CONVERSION_BASED_UNIT('gram',#178)
MASS_UNIT()
NAMED_UNIT(#175)
);
#177=(
MASS_UNIT()
NAMED_UNIT(*)
SI_UNIT(.KILO.,.GRAM.)
);
#178=MASS_MEASURE_WITH_UNIT(MASS_MEASURE(0.001),#177);
#179=DERIVED_UNIT((#173,#174));
#180=MEASURE_REPRESENTATION_ITEM('density measure',
POSITIVE_RATIO_MEASURE(7.85),#179);
#181=PROPERTY_DEFINITION_REPRESENTATION(#186,#183);
#182=PROPERTY_DEFINITION_REPRESENTATION(#187,#184);
#183=REPRESENTATION('material name',(#185),#312);
#184=REPRESENTATION('density',(#180),#312);
#185=DESCRIPTIVE_REPRESENTATION_ITEM('Stahl, Guss','Stahl, Guss');
#186=PROPERTY_DEFINITION('material property','material name',#322);
#187=PROPERTY_DEFINITION('material property','density of part',#322);
#188=DATE_TIME_ROLE('creation_date');
#189=APPLIED_DATE_AND_TIME_ASSIGNMENT(#190,#188,(#322));
#190=DATE_AND_TIME(#191,#192);
#191=CALENDAR_DATE(2021,21,4);
#192=LOCAL_TIME(0,0,0.,#193);
#193=COORDINATED_UNIVERSAL_TIME_OFFSET(0,0,.BEHIND.);
#194=AXIS2_PLACEMENT_3D('placement',#265,#214,#215);
#195=AXIS2_PLACEMENT_3D('',#266,#216,#217);
#196=AXIS2_PLACEMENT_3D('',#268,#218,#219);
#197=AXIS2_PLACEMENT_3D('',#271,#221,#222);
#198=AXIS2_PLACEMENT_3D('',#272,#223,#224);
#199=AXIS2_PLACEMENT_3D('',#274,#225,#226);
#200=AXIS2_PLACEMENT_3D('',#277,#228,#229);
#201=AXIS2_PLACEMENT_3D('',#278,#230,#231);
#202=AXIS2_PLACEMENT_3D('',#280,#232,#233);
#203=AXIS2_PLACEMENT_3D('',#283,#235,#236);
#204=AXIS2_PLACEMENT_3D('',#284,#237,#238);
#205=AXIS2_PLACEMENT_3D('',#293,#243,#244);
#206=AXIS2_PLACEMENT_3D('',#295,#245,#246);
#207=AXIS2_PLACEMENT_3D('',#297,#247,#248);
#208=AXIS2_PLACEMENT_3D('',#299,#250,#251);
#209=AXIS2_PLACEMENT_3D('',#305,#255,#256);
#210=AXIS2_PLACEMENT_3D('',#306,#257,#258);
#211=AXIS2_PLACEMENT_3D('',#307,#259,#260);
#212=AXIS2_PLACEMENT_3D('',#308,#261,#262);
#213=AXIS2_PLACEMENT_3D('',#309,#263,#264);
#214=DIRECTION('axis',(0.,0.,1.));
#215=DIRECTION('refdir',(1.,0.,0.));
#216=DIRECTION('center_axis',(0.,1.,0.));
#217=DIRECTION('ref_axis',(1.,0.,0.));
#218=DIRECTION('center_axis',(0.,-1.,0.));
#219=DIRECTION('ref_axis',(1.,0.,0.));
#220=DIRECTION('',(0.,-1.,0.));
#221=DIRECTION('center_axis',(0.,-1.,0.));
#222=DIRECTION('ref_axis',(1.,0.,0.));
#223=DIRECTION('center_axis',(0.,1.,0.));
#224=DIRECTION('ref_axis',(1.,0.,0.));
#225=DIRECTION('center_axis',(0.,-1.,0.));
#226=DIRECTION('ref_axis',(1.,0.,0.));
#227=DIRECTION('',(0.,-1.,0.));
#228=DIRECTION('center_axis',(0.,-1.,0.));
#229=DIRECTION('ref_axis',(1.,0.,0.));
#230=DIRECTION('center_axis',(0.,1.,0.));
#231=DIRECTION('ref_axis',(1.,0.,0.));
#232=DIRECTION('center_axis',(0.,-1.,0.));
#233=DIRECTION('ref_axis',(1.,0.,0.));
#234=DIRECTION('',(0.,-1.,0.));
#235=DIRECTION('center_axis',(0.,-1.,0.));
#236=DIRECTION('ref_axis',(1.,0.,0.));
#237=DIRECTION('center_axis',(-1.,0.,0.));
#238=DIRECTION('ref_axis',(0.,0.,1.));
#239=DIRECTION('',(0.,0.,1.));
#240=DIRECTION('',(0.,1.,0.));
#241=DIRECTION('',(0.,0.,1.));
#242=DIRECTION('',(0.,1.,0.));
#243=DIRECTION('center_axis',(0.,1.,0.));
#244=DIRECTION('ref_axis',(0.5,0.,-0.866025403784439));
#245=DIRECTION('center_axis',(0.,1.,0.));
#246=DIRECTION('ref_axis',(0.5,0.,-0.866025403784439));
#247=DIRECTION('center_axis',(0.,1.,0.));
#248=DIRECTION('ref_axis',(0.5,0.,-0.866025403784439));
#249=DIRECTION('',(0.,1.,0.));
#250=DIRECTION('center_axis',(1.,0.,-3.87026422273689E-16));
#251=DIRECTION('ref_axis',(-3.87026422273689E-16,0.,-1.));
#252=DIRECTION('',(-3.87026422273689E-16,0.,-1.));
#253=DIRECTION('',(-3.87026422273689E-16,0.,-1.));
#254=DIRECTION('',(0.,1.,0.));
#255=DIRECTION('center_axis',(0.,1.,0.));
#256=DIRECTION('ref_axis',(-0.5,0.,0.866025403784438));
#257=DIRECTION('center_axis',(0.,1.,0.));
#258=DIRECTION('ref_axis',(-0.5,0.,0.866025403784438));
#259=DIRECTION('center_axis',(0.,1.,0.));
#260=DIRECTION('ref_axis',(-0.5,0.,0.866025403784438));
#261=DIRECTION('center_axis',(0.,1.,0.));
#262=DIRECTION('ref_axis',(0.,0.,1.));
#263=DIRECTION('center_axis',(0.,1.,0.));
#264=DIRECTION('ref_axis',(0.,0.,1.));
#265=CARTESIAN_POINT('',(0.,0.,0.));
#266=CARTESIAN_POINT('Origin',(-30.,0.,-11.9615242270663));
#267=CARTESIAN_POINT('',(-37.,6.,-11.9615242270663));
#268=CARTESIAN_POINT('Origin',(-30.,6.,-11.9615242270663));
#269=CARTESIAN_POINT('',(-37.,0.,-11.9615242270663));
#270=CARTESIAN_POINT('',(-37.,0.,-11.9615242270663));
#271=CARTESIAN_POINT('Origin',(-30.,0.,-11.9615242270663));
#272=CARTESIAN_POINT('Origin',(-30.,0.,-51.9615242270663));
#273=CARTESIAN_POINT('',(-36.25,6.,-51.9615242270663));
#274=CARTESIAN_POINT('Origin',(-30.,6.,-51.9615242270663));
#275=CARTESIAN_POINT('',(-36.25,0.,-51.9615242270663));
#276=CARTESIAN_POINT('',(-36.25,0.,-51.9615242270663));
#277=CARTESIAN_POINT('Origin',(-30.,0.,-51.9615242270663));
#278=CARTESIAN_POINT('Origin',(-30.,0.,-91.9615242270663));
#279=CARTESIAN_POINT('',(-37.,6.,-91.9615242270663));
#280=CARTESIAN_POINT('Origin',(-30.,6.,-91.9615242270663));
#281=CARTESIAN_POINT('',(-37.,0.,-91.9615242270663));
#282=CARTESIAN_POINT('',(-37.,0.,-91.9615242270663));
#283=CARTESIAN_POINT('Origin',(-30.,0.,-91.9615242270663));
#284=CARTESIAN_POINT('Origin',(-60.,0.,-103.923048454133));
#285=CARTESIAN_POINT('',(-60.,0.,-103.923048454133));
#286=CARTESIAN_POINT('',(-60.,0.,2.20436423846524E-14));
#287=CARTESIAN_POINT('',(-60.,0.,-103.923048454133));
#288=CARTESIAN_POINT('',(-60.,6.,2.20436423846524E-14));
#289=CARTESIAN_POINT('',(-60.,0.,2.20436423846524E-14));
#290=CARTESIAN_POINT('',(-60.,6.,-103.923048454133));
#291=CARTESIAN_POINT('',(-60.,6.,-103.923048454133));
#292=CARTESIAN_POINT('',(-60.,0.,-103.923048454133));
#293=CARTESIAN_POINT('Origin',(-30.,0.,-51.9615242270663));
#294=CARTESIAN_POINT('',(-4.02209656349782E-14,0.,-103.923048454133));
#295=CARTESIAN_POINT('Origin',(-30.,0.,-51.9615242270663));
#296=CARTESIAN_POINT('',(-4.44089209850063E-14,6.,-103.923048454133));
#297=CARTESIAN_POINT('Origin',(-30.,6.,-51.9615242270663));
#298=CARTESIAN_POINT('',(-4.02209656349782E-14,0.,-103.923048454133));
#299=CARTESIAN_POINT('Origin',(0.,0.,0.));
#300=CARTESIAN_POINT('',(0.,0.,0.));
#301=CARTESIAN_POINT('',(0.,0.,0.));
#302=CARTESIAN_POINT('',(0.,6.,0.));
#303=CARTESIAN_POINT('',(0.,6.,0.));
#304=CARTESIAN_POINT('',(0.,0.,0.));
#305=CARTESIAN_POINT('Origin',(-30.,0.,-51.9615242270663));
#306=CARTESIAN_POINT('Origin',(-30.,0.,-51.9615242270663));
#307=CARTESIAN_POINT('Origin',(-30.,6.,-51.9615242270663));
#308=CARTESIAN_POINT('Origin',(-30.,6.,-51.9615242270663));
#309=CARTESIAN_POINT('Origin',(-30.,0.,-51.9615242270663));
#310=UNCERTAINTY_MEASURE_WITH_UNIT(LENGTH_MEASURE(0.01),#314,
'DISTANCE_ACCURACY_VALUE',
'Maximum model space distance between geometric entities at asserted c
onnectivities');
#311=UNCERTAINTY_MEASURE_WITH_UNIT(LENGTH_MEASURE(0.01),#314,
'DISTANCE_ACCURACY_VALUE',
'Maximum model space distance between geometric entities at asserted c
onnectivities');
#312=(
GEOMETRIC_REPRESENTATION_CONTEXT(3)
GLOBAL_UNCERTAINTY_ASSIGNED_CONTEXT((#310))
GLOBAL_UNIT_ASSIGNED_CONTEXT((#314,#316,#317))
REPRESENTATION_CONTEXT('','3D')
);
#313=(
GEOMETRIC_REPRESENTATION_CONTEXT(3)
GLOBAL_UNCERTAINTY_ASSIGNED_CONTEXT((#311))
GLOBAL_UNIT_ASSIGNED_CONTEXT((#314,#316,#317))
REPRESENTATION_CONTEXT('','3D')
);
#314=(
LENGTH_UNIT()
NAMED_UNIT(*)
SI_UNIT(.MILLI.,.METRE.)
);
#315=(
LENGTH_UNIT()
NAMED_UNIT(*)
SI_UNIT(.CENTI.,.METRE.)
);
#316=(
NAMED_UNIT(*)
PLANE_ANGLE_UNIT()
SI_UNIT($,.RADIAN.)
);
#317=(
NAMED_UNIT(*)
SI_UNIT($,.STERADIAN.)
SOLID_ANGLE_UNIT()
);
#318=SHAPE_DEFINITION_REPRESENTATION(#319,#320);
#319=PRODUCT_DEFINITION_SHAPE('',$,#322);
#320=SHAPE_REPRESENTATION('',(#194),#312);
#321=PRODUCT_DEFINITION_CONTEXT('part definition',#326,'design');
#322=PRODUCT_DEFINITION('44015','44015',#323,#321);
#323=PRODUCT_DEFINITION_FORMATION('',$,#328);
#324=PRODUCT_RELATED_PRODUCT_CATEGORY('44015','44015',(#328));
#325=APPLICATION_PROTOCOL_DEFINITION('international standard',
'automotive_design',2009,#326);
#326=APPLICATION_CONTEXT(
'Core Data for Automotive Mechanical Design Process');
#327=PRODUCT_CONTEXT('part definition',#326,'mechanical');
#328=PRODUCT('44015','44015',$,(#327));
#329=PRESENTATION_STYLE_ASSIGNMENT((#330));
#330=SURFACE_STYLE_USAGE(.BOTH.,#333);
#331=SURFACE_STYLE_RENDERING_WITH_PROPERTIES($,#337,(#332));
#332=SURFACE_STYLE_TRANSPARENT(0.);
#333=SURFACE_SIDE_STYLE('',(#334,#331));
#334=SURFACE_STYLE_FILL_AREA(#335);
#335=FILL_AREA_STYLE('',(#336));
#336=FILL_AREA_STYLE_COLOUR('',#337);
#337=COLOUR_RGB('',0.0196078431372549,0.0196078431372549,0.0196078431372549);
ENDSEC;
END-ISO-10303-21;
