ISO-10303-21;
HEADER;
/* Generated by software containing ST-Developer
 * from STEP Tools, Inc. (www.steptools.com) 
 */

FILE_DESCRIPTION(
/* description */ (''),
/* implementation_level */ '2;1');

FILE_NAME(
/* name */ '44107.ipt.step',
/* time_stamp */ '2022-07-20T08:05:22+02:00',
/* author */ ('Nutzer'),
/* organization */ (''),
/* preprocessor_version */ 'ST-DEVELOPER v19.2',
/* originating_system */ 'Autodesk Inventor 2023',
/* authorisation */ '');

FILE_SCHEMA (('AUTOMOTIVE_DESIGN { 1 0 10303 214 3 1 1 }'));
ENDSEC;

DATA;
#10=MECHANICAL_DESIGN_GEOMETRIC_PRESENTATION_REPRESENTATION('',(#13),#334);
#11=SHAPE_REPRESENTATION_RELATIONSHIP('SRR','None',#341,#12);
#12=ADVANCED_BREP_SHAPE_REPRESENTATION('',(#14),#333);
#13=STYLED_ITEM('',(#350),#14);
#14=MANIFOLD_SOLID_BREP('Volumenk\X\F6rper1',#189);
#15=FACE_BOUND('',#45,.T.);
#16=FACE_BOUND('',#47,.T.);
#17=CIRCLE('',#214,3.5);
#18=CIRCLE('',#215,3.5);
#19=CIRCLE('',#218,3.5);
#20=CIRCLE('',#219,3.5);
#21=CIRCLE('',#223,10.);
#22=CIRCLE('',#224,10.);
#23=CYLINDRICAL_SURFACE('',#213,3.5);
#24=CYLINDRICAL_SURFACE('',#217,3.5);
#25=CYLINDRICAL_SURFACE('',#222,10.);
#26=FACE_OUTER_BOUND('',#36,.T.);
#27=FACE_OUTER_BOUND('',#37,.T.);
#28=FACE_OUTER_BOUND('',#38,.T.);
#29=FACE_OUTER_BOUND('',#39,.T.);
#30=FACE_OUTER_BOUND('',#40,.T.);
#31=FACE_OUTER_BOUND('',#41,.T.);
#32=FACE_OUTER_BOUND('',#42,.T.);
#33=FACE_OUTER_BOUND('',#43,.T.);
#34=FACE_OUTER_BOUND('',#44,.T.);
#35=FACE_OUTER_BOUND('',#46,.T.);
#36=EDGE_LOOP('',(#124,#125,#126,#127));
#37=EDGE_LOOP('',(#128,#129,#130,#131));
#38=EDGE_LOOP('',(#132,#133,#134,#135));
#39=EDGE_LOOP('',(#136,#137,#138,#139));
#40=EDGE_LOOP('',(#140,#141,#142,#143));
#41=EDGE_LOOP('',(#144,#145,#146,#147));
#42=EDGE_LOOP('',(#148,#149,#150,#151));
#43=EDGE_LOOP('',(#152,#153,#154,#155));
#44=EDGE_LOOP('',(#156,#157,#158,#159));
#45=EDGE_LOOP('',(#160,#161,#162,#163));
#46=EDGE_LOOP('',(#164,#165,#166,#167));
#47=EDGE_LOOP('',(#168,#169,#170,#171));
#48=LINE('',#284,#66);
#49=LINE('',#286,#67);
#50=LINE('',#288,#68);
#51=LINE('',#289,#69);
#52=LINE('',#295,#70);
#53=LINE('',#298,#71);
#54=LINE('',#300,#72);
#55=LINE('',#301,#73);
#56=LINE('',#308,#74);
#57=LINE('',#310,#75);
#58=LINE('',#312,#76);
#59=LINE('',#313,#77);
#60=LINE('',#316,#78);
#61=LINE('',#318,#79);
#62=LINE('',#319,#80);
#63=LINE('',#325,#81);
#64=LINE('',#327,#82);
#65=LINE('',#328,#83);
#66=VECTOR('',#232,10.);
#67=VECTOR('',#233,10.);
#68=VECTOR('',#234,10.);
#69=VECTOR('',#235,10.);
#70=VECTOR('',#242,10.);
#71=VECTOR('',#245,10.);
#72=VECTOR('',#246,10.);
#73=VECTOR('',#247,10.);
#74=VECTOR('',#256,10.);
#75=VECTOR('',#257,10.);
#76=VECTOR('',#258,10.);
#77=VECTOR('',#259,10.);
#78=VECTOR('',#262,10.);
#79=VECTOR('',#263,10.);
#80=VECTOR('',#264,10.);
#81=VECTOR('',#271,10.);
#82=VECTOR('',#274,10.);
#83=VECTOR('',#275,10.);
#84=VERTEX_POINT('',#282);
#85=VERTEX_POINT('',#283);
#86=VERTEX_POINT('',#285);
#87=VERTEX_POINT('',#287);
#88=VERTEX_POINT('',#291);
#89=VERTEX_POINT('',#293);
#90=VERTEX_POINT('',#297);
#91=VERTEX_POINT('',#299);
#92=VERTEX_POINT('',#306);
#93=VERTEX_POINT('',#307);
#94=VERTEX_POINT('',#309);
#95=VERTEX_POINT('',#311);
#96=VERTEX_POINT('',#315);
#97=VERTEX_POINT('',#317);
#98=VERTEX_POINT('',#321);
#99=VERTEX_POINT('',#323);
#100=EDGE_CURVE('',#84,#85,#48,.T.);
#101=EDGE_CURVE('',#85,#86,#49,.T.);
#102=EDGE_CURVE('',#87,#86,#50,.T.);
#103=EDGE_CURVE('',#84,#87,#51,.T.);
#104=EDGE_CURVE('',#88,#84,#17,.T.);
#105=EDGE_CURVE('',#89,#87,#18,.T.);
#106=EDGE_CURVE('',#88,#89,#52,.T.);
#107=EDGE_CURVE('',#90,#88,#53,.T.);
#108=EDGE_CURVE('',#91,#89,#54,.T.);
#109=EDGE_CURVE('',#90,#91,#55,.T.);
#110=EDGE_CURVE('',#85,#90,#19,.T.);
#111=EDGE_CURVE('',#86,#91,#20,.T.);
#112=EDGE_CURVE('',#92,#93,#56,.T.);
#113=EDGE_CURVE('',#93,#94,#57,.T.);
#114=EDGE_CURVE('',#95,#94,#58,.T.);
#115=EDGE_CURVE('',#92,#95,#59,.T.);
#116=EDGE_CURVE('',#96,#92,#60,.T.);
#117=EDGE_CURVE('',#97,#95,#61,.T.);
#118=EDGE_CURVE('',#96,#97,#62,.T.);
#119=EDGE_CURVE('',#98,#96,#21,.T.);
#120=EDGE_CURVE('',#99,#97,#22,.T.);
#121=EDGE_CURVE('',#98,#99,#63,.T.);
#122=EDGE_CURVE('',#93,#98,#64,.T.);
#123=EDGE_CURVE('',#94,#99,#65,.T.);
#124=ORIENTED_EDGE('',*,*,#100,.T.);
#125=ORIENTED_EDGE('',*,*,#101,.T.);
#126=ORIENTED_EDGE('',*,*,#102,.F.);
#127=ORIENTED_EDGE('',*,*,#103,.F.);
#128=ORIENTED_EDGE('',*,*,#104,.T.);
#129=ORIENTED_EDGE('',*,*,#103,.T.);
#130=ORIENTED_EDGE('',*,*,#105,.F.);
#131=ORIENTED_EDGE('',*,*,#106,.F.);
#132=ORIENTED_EDGE('',*,*,#107,.T.);
#133=ORIENTED_EDGE('',*,*,#106,.T.);
#134=ORIENTED_EDGE('',*,*,#108,.F.);
#135=ORIENTED_EDGE('',*,*,#109,.F.);
#136=ORIENTED_EDGE('',*,*,#110,.T.);
#137=ORIENTED_EDGE('',*,*,#109,.T.);
#138=ORIENTED_EDGE('',*,*,#111,.F.);
#139=ORIENTED_EDGE('',*,*,#101,.F.);
#140=ORIENTED_EDGE('',*,*,#112,.T.);
#141=ORIENTED_EDGE('',*,*,#113,.T.);
#142=ORIENTED_EDGE('',*,*,#114,.F.);
#143=ORIENTED_EDGE('',*,*,#115,.F.);
#144=ORIENTED_EDGE('',*,*,#116,.T.);
#145=ORIENTED_EDGE('',*,*,#115,.T.);
#146=ORIENTED_EDGE('',*,*,#117,.F.);
#147=ORIENTED_EDGE('',*,*,#118,.F.);
#148=ORIENTED_EDGE('',*,*,#119,.T.);
#149=ORIENTED_EDGE('',*,*,#118,.T.);
#150=ORIENTED_EDGE('',*,*,#120,.F.);
#151=ORIENTED_EDGE('',*,*,#121,.F.);
#152=ORIENTED_EDGE('',*,*,#122,.T.);
#153=ORIENTED_EDGE('',*,*,#121,.T.);
#154=ORIENTED_EDGE('',*,*,#123,.F.);
#155=ORIENTED_EDGE('',*,*,#113,.F.);
#156=ORIENTED_EDGE('',*,*,#123,.T.);
#157=ORIENTED_EDGE('',*,*,#120,.T.);
#158=ORIENTED_EDGE('',*,*,#117,.T.);
#159=ORIENTED_EDGE('',*,*,#114,.T.);
#160=ORIENTED_EDGE('',*,*,#111,.T.);
#161=ORIENTED_EDGE('',*,*,#108,.T.);
#162=ORIENTED_EDGE('',*,*,#105,.T.);
#163=ORIENTED_EDGE('',*,*,#102,.T.);
#164=ORIENTED_EDGE('',*,*,#122,.F.);
#165=ORIENTED_EDGE('',*,*,#112,.F.);
#166=ORIENTED_EDGE('',*,*,#116,.F.);
#167=ORIENTED_EDGE('',*,*,#119,.F.);
#168=ORIENTED_EDGE('',*,*,#110,.F.);
#169=ORIENTED_EDGE('',*,*,#100,.F.);
#170=ORIENTED_EDGE('',*,*,#104,.F.);
#171=ORIENTED_EDGE('',*,*,#107,.F.);
#172=PLANE('',#212);
#173=PLANE('',#216);
#174=PLANE('',#220);
#175=PLANE('',#221);
#176=PLANE('',#225);
#177=PLANE('',#226);
#178=PLANE('',#227);
#179=ADVANCED_FACE('',(#26),#172,.T.);
#180=ADVANCED_FACE('',(#27),#23,.F.);
#181=ADVANCED_FACE('',(#28),#173,.T.);
#182=ADVANCED_FACE('',(#29),#24,.F.);
#183=ADVANCED_FACE('',(#30),#174,.T.);
#184=ADVANCED_FACE('',(#31),#175,.T.);
#185=ADVANCED_FACE('',(#32),#25,.T.);
#186=ADVANCED_FACE('',(#33),#176,.T.);
#187=ADVANCED_FACE('',(#34,#15),#177,.T.);
#188=ADVANCED_FACE('',(#35,#16),#178,.F.);
#189=CLOSED_SHELL('',(#179,#180,#181,#182,#183,#184,#185,#186,#187,#188));
#190=DERIVED_UNIT_ELEMENT(#193,1.);
#191=DERIVED_UNIT_ELEMENT(#336,-3.);
#192=DIMENSIONAL_EXPONENTS(0.,1.,0.,0.,0.,0.,0.);
#193=(
CONVERSION_BASED_UNIT('gram',#195)
MASS_UNIT()
NAMED_UNIT(#192)
);
#194=(
MASS_UNIT()
NAMED_UNIT(*)
SI_UNIT(.KILO.,.GRAM.)
);
#195=MASS_MEASURE_WITH_UNIT(MASS_MEASURE(0.001),#194);
#196=DERIVED_UNIT((#190,#191));
#197=MEASURE_REPRESENTATION_ITEM('density measure',
POSITIVE_RATIO_MEASURE(7.85),#196);
#198=PROPERTY_DEFINITION_REPRESENTATION(#203,#200);
#199=PROPERTY_DEFINITION_REPRESENTATION(#204,#201);
#200=REPRESENTATION('material name',(#202),#333);
#201=REPRESENTATION('density',(#197),#333);
#202=DESCRIPTIVE_REPRESENTATION_ITEM('Stahl, Guss','Stahl, Guss');
#203=PROPERTY_DEFINITION('material property','material name',#343);
#204=PROPERTY_DEFINITION('material property','density of part',#343);
#205=DATE_TIME_ROLE('creation_date');
#206=APPLIED_DATE_AND_TIME_ASSIGNMENT(#207,#205,(#343));
#207=DATE_AND_TIME(#208,#209);
#208=CALENDAR_DATE(2021,21,4);
#209=LOCAL_TIME(0,0,0.,#210);
#210=COORDINATED_UNIVERSAL_TIME_OFFSET(0,0,.BEHIND.);
#211=AXIS2_PLACEMENT_3D('placement',#280,#228,#229);
#212=AXIS2_PLACEMENT_3D('',#281,#230,#231);
#213=AXIS2_PLACEMENT_3D('',#290,#236,#237);
#214=AXIS2_PLACEMENT_3D('',#292,#238,#239);
#215=AXIS2_PLACEMENT_3D('',#294,#240,#241);
#216=AXIS2_PLACEMENT_3D('',#296,#243,#244);
#217=AXIS2_PLACEMENT_3D('',#302,#248,#249);
#218=AXIS2_PLACEMENT_3D('',#303,#250,#251);
#219=AXIS2_PLACEMENT_3D('',#304,#252,#253);
#220=AXIS2_PLACEMENT_3D('',#305,#254,#255);
#221=AXIS2_PLACEMENT_3D('',#314,#260,#261);
#222=AXIS2_PLACEMENT_3D('',#320,#265,#266);
#223=AXIS2_PLACEMENT_3D('',#322,#267,#268);
#224=AXIS2_PLACEMENT_3D('',#324,#269,#270);
#225=AXIS2_PLACEMENT_3D('',#326,#272,#273);
#226=AXIS2_PLACEMENT_3D('',#329,#276,#277);
#227=AXIS2_PLACEMENT_3D('',#330,#278,#279);
#228=DIRECTION('axis',(0.,0.,1.));
#229=DIRECTION('refdir',(1.,0.,0.));
#230=DIRECTION('center_axis',(0.,0.,-1.));
#231=DIRECTION('ref_axis',(-1.,0.,0.));
#232=DIRECTION('',(-1.,0.,0.));
#233=DIRECTION('',(0.,1.,0.));
#234=DIRECTION('',(-1.,0.,0.));
#235=DIRECTION('',(0.,1.,0.));
#236=DIRECTION('center_axis',(0.,1.,0.));
#237=DIRECTION('ref_axis',(0.,0.,-1.));
#238=DIRECTION('center_axis',(0.,-1.,0.));
#239=DIRECTION('ref_axis',(0.,0.,-1.));
#240=DIRECTION('center_axis',(0.,-1.,0.));
#241=DIRECTION('ref_axis',(0.,0.,-1.));
#242=DIRECTION('',(0.,1.,0.));
#243=DIRECTION('center_axis',(0.,0.,1.));
#244=DIRECTION('ref_axis',(1.,0.,0.));
#245=DIRECTION('',(1.,0.,0.));
#246=DIRECTION('',(1.,0.,0.));
#247=DIRECTION('',(0.,1.,0.));
#248=DIRECTION('center_axis',(0.,1.,0.));
#249=DIRECTION('ref_axis',(0.,0.,1.));
#250=DIRECTION('center_axis',(0.,-1.,0.));
#251=DIRECTION('ref_axis',(0.,0.,1.));
#252=DIRECTION('center_axis',(0.,-1.,0.));
#253=DIRECTION('ref_axis',(0.,0.,1.));
#254=DIRECTION('center_axis',(1.,0.,0.));
#255=DIRECTION('ref_axis',(0.,0.,-1.));
#256=DIRECTION('',(0.,0.,-1.));
#257=DIRECTION('',(0.,1.,0.));
#258=DIRECTION('',(0.,0.,-1.));
#259=DIRECTION('',(0.,1.,0.));
#260=DIRECTION('center_axis',(0.,0.,1.));
#261=DIRECTION('ref_axis',(1.,0.,0.));
#262=DIRECTION('',(1.,0.,0.));
#263=DIRECTION('',(1.,0.,0.));
#264=DIRECTION('',(0.,1.,0.));
#265=DIRECTION('center_axis',(0.,1.,0.));
#266=DIRECTION('ref_axis',(0.,0.,-1.));
#267=DIRECTION('center_axis',(0.,1.,0.));
#268=DIRECTION('ref_axis',(0.,0.,-1.));
#269=DIRECTION('center_axis',(0.,1.,0.));
#270=DIRECTION('ref_axis',(0.,0.,-1.));
#271=DIRECTION('',(0.,1.,0.));
#272=DIRECTION('center_axis',(0.,0.,-1.));
#273=DIRECTION('ref_axis',(-1.,0.,0.));
#274=DIRECTION('',(-1.,0.,0.));
#275=DIRECTION('',(-1.,0.,0.));
#276=DIRECTION('center_axis',(0.,1.,0.));
#277=DIRECTION('ref_axis',(0.,0.,1.));
#278=DIRECTION('center_axis',(0.,1.,0.));
#279=DIRECTION('ref_axis',(0.,0.,1.));
#280=CARTESIAN_POINT('',(0.,0.,0.));
#281=CARTESIAN_POINT('Origin',(-10.,0.,-6.5));
#282=CARTESIAN_POINT('',(-10.,0.,-6.5));
#283=CARTESIAN_POINT('',(-20.,0.,-6.5));
#284=CARTESIAN_POINT('',(-10.,0.,-6.5));
#285=CARTESIAN_POINT('',(-20.,5.,-6.5));
#286=CARTESIAN_POINT('',(-20.,0.,-6.5));
#287=CARTESIAN_POINT('',(-10.,5.,-6.5));
#288=CARTESIAN_POINT('',(-10.,5.,-6.5));
#289=CARTESIAN_POINT('',(-10.,0.,-6.5));
#290=CARTESIAN_POINT('Origin',(-10.,0.,-10.));
#291=CARTESIAN_POINT('',(-10.,0.,-13.5));
#292=CARTESIAN_POINT('Origin',(-10.,0.,-10.));
#293=CARTESIAN_POINT('',(-10.,5.,-13.5));
#294=CARTESIAN_POINT('Origin',(-10.,5.,-10.));
#295=CARTESIAN_POINT('',(-10.,0.,-13.5));
#296=CARTESIAN_POINT('Origin',(-20.,0.,-13.5));
#297=CARTESIAN_POINT('',(-20.,0.,-13.5));
#298=CARTESIAN_POINT('',(-20.,0.,-13.5));
#299=CARTESIAN_POINT('',(-20.,5.,-13.5));
#300=CARTESIAN_POINT('',(-20.,5.,-13.5));
#301=CARTESIAN_POINT('',(-20.,0.,-13.5));
#302=CARTESIAN_POINT('Origin',(-20.,0.,-10.));
#303=CARTESIAN_POINT('Origin',(-20.,0.,-10.));
#304=CARTESIAN_POINT('Origin',(-20.,5.,-10.));
#305=CARTESIAN_POINT('Origin',(0.,0.,0.));
#306=CARTESIAN_POINT('',(0.,0.,0.));
#307=CARTESIAN_POINT('',(0.,0.,-20.));
#308=CARTESIAN_POINT('',(0.,0.,0.));
#309=CARTESIAN_POINT('',(0.,5.,-20.));
#310=CARTESIAN_POINT('',(0.,0.,-20.));
#311=CARTESIAN_POINT('',(0.,5.,0.));
#312=CARTESIAN_POINT('',(0.,5.,0.));
#313=CARTESIAN_POINT('',(0.,0.,0.));
#314=CARTESIAN_POINT('Origin',(-20.,0.,0.));
#315=CARTESIAN_POINT('',(-20.,0.,0.));
#316=CARTESIAN_POINT('',(-20.,0.,0.));
#317=CARTESIAN_POINT('',(-20.,5.,0.));
#318=CARTESIAN_POINT('',(-20.,5.,0.));
#319=CARTESIAN_POINT('',(-20.,0.,0.));
#320=CARTESIAN_POINT('Origin',(-20.,0.,-10.));
#321=CARTESIAN_POINT('',(-20.,0.,-20.));
#322=CARTESIAN_POINT('Origin',(-20.,0.,-10.));
#323=CARTESIAN_POINT('',(-20.,5.,-20.));
#324=CARTESIAN_POINT('Origin',(-20.,5.,-10.));
#325=CARTESIAN_POINT('',(-20.,0.,-20.));
#326=CARTESIAN_POINT('Origin',(0.,0.,-20.));
#327=CARTESIAN_POINT('',(0.,0.,-20.));
#328=CARTESIAN_POINT('',(0.,5.,-20.));
#329=CARTESIAN_POINT('Origin',(-15.,5.,-10.));
#330=CARTESIAN_POINT('Origin',(-15.,0.,-10.));
#331=UNCERTAINTY_MEASURE_WITH_UNIT(LENGTH_MEASURE(0.01),#335,
'DISTANCE_ACCURACY_VALUE',
'Maximum model space distance between geometric entities at asserted c
onnectivities');
#332=UNCERTAINTY_MEASURE_WITH_UNIT(LENGTH_MEASURE(0.01),#335,
'DISTANCE_ACCURACY_VALUE',
'Maximum model space distance between geometric entities at asserted c
onnectivities');
#333=(
GEOMETRIC_REPRESENTATION_CONTEXT(3)
GLOBAL_UNCERTAINTY_ASSIGNED_CONTEXT((#331))
GLOBAL_UNIT_ASSIGNED_CONTEXT((#335,#337,#338))
REPRESENTATION_CONTEXT('','3D')
);
#334=(
GEOMETRIC_REPRESENTATION_CONTEXT(3)
GLOBAL_UNCERTAINTY_ASSIGNED_CONTEXT((#332))
GLOBAL_UNIT_ASSIGNED_CONTEXT((#335,#337,#338))
REPRESENTATION_CONTEXT('','3D')
);
#335=(
LENGTH_UNIT()
NAMED_UNIT(*)
SI_UNIT(.MILLI.,.METRE.)
);
#336=(
LENGTH_UNIT()
NAMED_UNIT(*)
SI_UNIT(.CENTI.,.METRE.)
);
#337=(
NAMED_UNIT(*)
PLANE_ANGLE_UNIT()
SI_UNIT($,.RADIAN.)
);
#338=(
NAMED_UNIT(*)
SI_UNIT($,.STERADIAN.)
SOLID_ANGLE_UNIT()
);
#339=SHAPE_DEFINITION_REPRESENTATION(#340,#341);
#340=PRODUCT_DEFINITION_SHAPE('',$,#343);
#341=SHAPE_REPRESENTATION('',(#211),#333);
#342=PRODUCT_DEFINITION_CONTEXT('part definition',#347,'design');
#343=PRODUCT_DEFINITION('44107','44107',#344,#342);
#344=PRODUCT_DEFINITION_FORMATION('',$,#349);
#345=PRODUCT_RELATED_PRODUCT_CATEGORY('44107','44107',(#349));
#346=APPLICATION_PROTOCOL_DEFINITION('international standard',
'automotive_design',2009,#347);
#347=APPLICATION_CONTEXT(
'Core Data for Automotive Mechanical Design Process');
#348=PRODUCT_CONTEXT('part definition',#347,'mechanical');
#349=PRODUCT('44107','44107',$,(#348));
#350=PRESENTATION_STYLE_ASSIGNMENT((#351));
#351=SURFACE_STYLE_USAGE(.BOTH.,#354);
#352=SURFACE_STYLE_RENDERING_WITH_PROPERTIES($,#358,(#353));
#353=SURFACE_STYLE_TRANSPARENT(0.);
#354=SURFACE_SIDE_STYLE('',(#355,#352));
#355=SURFACE_STYLE_FILL_AREA(#356);
#356=FILL_AREA_STYLE('',(#357));
#357=FILL_AREA_STYLE_COLOUR('',#358);
#358=COLOUR_RGB('',0.0196078431372549,0.0196078431372549,0.0196078431372549);
ENDSEC;
END-ISO-10303-21;
