ISO-10303-21;
HEADER;
/* Generated by software containing ST-Developer
 * from STEP Tools, Inc. (www.steptools.com) 
 */

FILE_DESCRIPTION(
/* description */ (''),
/* implementation_level */ '2;1');

FILE_NAME(
/* name */ '44114.ipt.step',
/* time_stamp */ '2022-07-20T08:05:29+02:00',
/* author */ ('Nutzer'),
/* organization */ (''),
/* preprocessor_version */ 'ST-DEVELOPER v19.2',
/* originating_system */ 'Autodesk Inventor 2023',
/* authorisation */ '');

FILE_SCHEMA (('AUTOMOTIVE_DESIGN { 1 0 10303 214 3 1 1 }'));
ENDSEC;

DATA;
#10=MECHANICAL_DESIGN_GEOMETRIC_PRESENTATION_REPRESENTATION('',(#13),#301);
#11=SHAPE_REPRESENTATION_RELATIONSHIP('SRR','None',#308,#12);
#12=ADVANCED_BREP_SHAPE_REPRESENTATION('',(#14),#300);
#13=STYLED_ITEM('',(#317),#14);
#14=MANIFOLD_SOLID_BREP('Volumenk\X\F6rper1',#168);
#15=FACE_BOUND('',#40,.T.);
#16=FACE_BOUND('',#42,.T.);
#17=PLANE('',#194);
#18=PLANE('',#195);
#19=PLANE('',#199);
#20=PLANE('',#203);
#21=PLANE('',#204);
#22=PLANE('',#205);
#23=FACE_OUTER_BOUND('',#32,.T.);
#24=FACE_OUTER_BOUND('',#33,.T.);
#25=FACE_OUTER_BOUND('',#34,.T.);
#26=FACE_OUTER_BOUND('',#35,.T.);
#27=FACE_OUTER_BOUND('',#36,.T.);
#28=FACE_OUTER_BOUND('',#37,.T.);
#29=FACE_OUTER_BOUND('',#38,.T.);
#30=FACE_OUTER_BOUND('',#39,.T.);
#31=FACE_OUTER_BOUND('',#41,.T.);
#32=EDGE_LOOP('',(#114,#115,#116,#117));
#33=EDGE_LOOP('',(#118,#119,#120,#121));
#34=EDGE_LOOP('',(#122,#123,#124,#125));
#35=EDGE_LOOP('',(#126,#127,#128,#129));
#36=EDGE_LOOP('',(#130,#131,#132,#133));
#37=EDGE_LOOP('',(#134,#135,#136,#137));
#38=EDGE_LOOP('',(#138,#139,#140,#141));
#39=EDGE_LOOP('',(#142,#143,#144,#145,#146,#147));
#40=EDGE_LOOP('',(#148));
#41=EDGE_LOOP('',(#149,#150,#151,#152,#153,#154));
#42=EDGE_LOOP('',(#155));
#43=LINE('',#258,#58);
#44=LINE('',#263,#59);
#45=LINE('',#265,#60);
#46=LINE('',#267,#61);
#47=LINE('',#268,#62);
#48=LINE('',#271,#63);
#49=LINE('',#273,#64);
#50=LINE('',#274,#65);
#51=LINE('',#280,#66);
#52=LINE('',#283,#67);
#53=LINE('',#285,#68);
#54=LINE('',#286,#69);
#55=LINE('',#292,#70);
#56=LINE('',#294,#71);
#57=LINE('',#295,#72);
#58=VECTOR('',#212,5.);
#59=VECTOR('',#217,10.);
#60=VECTOR('',#218,10.);
#61=VECTOR('',#219,10.);
#62=VECTOR('',#220,10.);
#63=VECTOR('',#223,10.);
#64=VECTOR('',#224,10.);
#65=VECTOR('',#225,10.);
#66=VECTOR('',#232,10.);
#67=VECTOR('',#235,10.);
#68=VECTOR('',#236,10.);
#69=VECTOR('',#237,10.);
#70=VECTOR('',#244,10.);
#71=VECTOR('',#247,10.);
#72=VECTOR('',#248,10.);
#73=CIRCLE('',#192,5.);
#74=CIRCLE('',#193,5.);
#75=CIRCLE('',#197,2.00000000000001);
#76=CIRCLE('',#198,2.00000000000001);
#77=CIRCLE('',#201,2.00000000000001);
#78=CIRCLE('',#202,2.00000000000001);
#79=VERTEX_POINT('',#255);
#80=VERTEX_POINT('',#257);
#81=VERTEX_POINT('',#261);
#82=VERTEX_POINT('',#262);
#83=VERTEX_POINT('',#264);
#84=VERTEX_POINT('',#266);
#85=VERTEX_POINT('',#270);
#86=VERTEX_POINT('',#272);
#87=VERTEX_POINT('',#276);
#88=VERTEX_POINT('',#278);
#89=VERTEX_POINT('',#282);
#90=VERTEX_POINT('',#284);
#91=VERTEX_POINT('',#288);
#92=VERTEX_POINT('',#290);
#93=EDGE_CURVE('',#79,#79,#73,.T.);
#94=EDGE_CURVE('',#79,#80,#43,.T.);
#95=EDGE_CURVE('',#80,#80,#74,.T.);
#96=EDGE_CURVE('',#81,#82,#44,.T.);
#97=EDGE_CURVE('',#82,#83,#45,.T.);
#98=EDGE_CURVE('',#84,#83,#46,.T.);
#99=EDGE_CURVE('',#81,#84,#47,.T.);
#100=EDGE_CURVE('',#85,#81,#48,.T.);
#101=EDGE_CURVE('',#86,#84,#49,.T.);
#102=EDGE_CURVE('',#85,#86,#50,.T.);
#103=EDGE_CURVE('',#87,#85,#75,.T.);
#104=EDGE_CURVE('',#88,#86,#76,.T.);
#105=EDGE_CURVE('',#87,#88,#51,.T.);
#106=EDGE_CURVE('',#89,#87,#52,.T.);
#107=EDGE_CURVE('',#90,#88,#53,.T.);
#108=EDGE_CURVE('',#89,#90,#54,.T.);
#109=EDGE_CURVE('',#91,#89,#77,.T.);
#110=EDGE_CURVE('',#92,#90,#78,.T.);
#111=EDGE_CURVE('',#91,#92,#55,.T.);
#112=EDGE_CURVE('',#82,#91,#56,.T.);
#113=EDGE_CURVE('',#83,#92,#57,.T.);
#114=ORIENTED_EDGE('',*,*,#93,.F.);
#115=ORIENTED_EDGE('',*,*,#94,.T.);
#116=ORIENTED_EDGE('',*,*,#95,.T.);
#117=ORIENTED_EDGE('',*,*,#94,.F.);
#118=ORIENTED_EDGE('',*,*,#96,.T.);
#119=ORIENTED_EDGE('',*,*,#97,.T.);
#120=ORIENTED_EDGE('',*,*,#98,.F.);
#121=ORIENTED_EDGE('',*,*,#99,.F.);
#122=ORIENTED_EDGE('',*,*,#100,.T.);
#123=ORIENTED_EDGE('',*,*,#99,.T.);
#124=ORIENTED_EDGE('',*,*,#101,.F.);
#125=ORIENTED_EDGE('',*,*,#102,.F.);
#126=ORIENTED_EDGE('',*,*,#103,.T.);
#127=ORIENTED_EDGE('',*,*,#102,.T.);
#128=ORIENTED_EDGE('',*,*,#104,.F.);
#129=ORIENTED_EDGE('',*,*,#105,.F.);
#130=ORIENTED_EDGE('',*,*,#106,.T.);
#131=ORIENTED_EDGE('',*,*,#105,.T.);
#132=ORIENTED_EDGE('',*,*,#107,.F.);
#133=ORIENTED_EDGE('',*,*,#108,.F.);
#134=ORIENTED_EDGE('',*,*,#109,.T.);
#135=ORIENTED_EDGE('',*,*,#108,.T.);
#136=ORIENTED_EDGE('',*,*,#110,.F.);
#137=ORIENTED_EDGE('',*,*,#111,.F.);
#138=ORIENTED_EDGE('',*,*,#112,.T.);
#139=ORIENTED_EDGE('',*,*,#111,.T.);
#140=ORIENTED_EDGE('',*,*,#113,.F.);
#141=ORIENTED_EDGE('',*,*,#97,.F.);
#142=ORIENTED_EDGE('',*,*,#113,.T.);
#143=ORIENTED_EDGE('',*,*,#110,.T.);
#144=ORIENTED_EDGE('',*,*,#107,.T.);
#145=ORIENTED_EDGE('',*,*,#104,.T.);
#146=ORIENTED_EDGE('',*,*,#101,.T.);
#147=ORIENTED_EDGE('',*,*,#98,.T.);
#148=ORIENTED_EDGE('',*,*,#93,.T.);
#149=ORIENTED_EDGE('',*,*,#112,.F.);
#150=ORIENTED_EDGE('',*,*,#96,.F.);
#151=ORIENTED_EDGE('',*,*,#100,.F.);
#152=ORIENTED_EDGE('',*,*,#103,.F.);
#153=ORIENTED_EDGE('',*,*,#106,.F.);
#154=ORIENTED_EDGE('',*,*,#109,.F.);
#155=ORIENTED_EDGE('',*,*,#95,.F.);
#156=CYLINDRICAL_SURFACE('',#191,5.);
#157=CYLINDRICAL_SURFACE('',#196,2.00000000000001);
#158=CYLINDRICAL_SURFACE('',#200,2.00000000000001);
#159=ADVANCED_FACE('',(#23),#156,.F.);
#160=ADVANCED_FACE('',(#24),#17,.T.);
#161=ADVANCED_FACE('',(#25),#18,.T.);
#162=ADVANCED_FACE('',(#26),#157,.T.);
#163=ADVANCED_FACE('',(#27),#19,.T.);
#164=ADVANCED_FACE('',(#28),#158,.T.);
#165=ADVANCED_FACE('',(#29),#20,.T.);
#166=ADVANCED_FACE('',(#30,#15),#21,.T.);
#167=ADVANCED_FACE('',(#31,#16),#22,.F.);
#168=CLOSED_SHELL('',(#159,#160,#161,#162,#163,#164,#165,#166,#167));
#169=DERIVED_UNIT_ELEMENT(#172,1.);
#170=DERIVED_UNIT_ELEMENT(#303,-3.);
#171=DIMENSIONAL_EXPONENTS(0.,1.,0.,0.,0.,0.,0.);
#172=(
CONVERSION_BASED_UNIT('gram',#174)
MASS_UNIT()
NAMED_UNIT(#171)
);
#173=(
MASS_UNIT()
NAMED_UNIT(*)
SI_UNIT(.KILO.,.GRAM.)
);
#174=MASS_MEASURE_WITH_UNIT(MASS_MEASURE(0.001),#173);
#175=DERIVED_UNIT((#169,#170));
#176=MEASURE_REPRESENTATION_ITEM('density measure',
POSITIVE_RATIO_MEASURE(7.85),#175);
#177=PROPERTY_DEFINITION_REPRESENTATION(#182,#179);
#178=PROPERTY_DEFINITION_REPRESENTATION(#183,#180);
#179=REPRESENTATION('material name',(#181),#300);
#180=REPRESENTATION('density',(#176),#300);
#181=DESCRIPTIVE_REPRESENTATION_ITEM('Stahl, Guss','Stahl, Guss');
#182=PROPERTY_DEFINITION('material property','material name',#310);
#183=PROPERTY_DEFINITION('material property','density of part',#310);
#184=DATE_TIME_ROLE('creation_date');
#185=APPLIED_DATE_AND_TIME_ASSIGNMENT(#186,#184,(#310));
#186=DATE_AND_TIME(#187,#188);
#187=CALENDAR_DATE(2021,21,4);
#188=LOCAL_TIME(0,0,0.,#189);
#189=COORDINATED_UNIVERSAL_TIME_OFFSET(0,0,.BEHIND.);
#190=AXIS2_PLACEMENT_3D('placement',#253,#206,#207);
#191=AXIS2_PLACEMENT_3D('',#254,#208,#209);
#192=AXIS2_PLACEMENT_3D('',#256,#210,#211);
#193=AXIS2_PLACEMENT_3D('',#259,#213,#214);
#194=AXIS2_PLACEMENT_3D('',#260,#215,#216);
#195=AXIS2_PLACEMENT_3D('',#269,#221,#222);
#196=AXIS2_PLACEMENT_3D('',#275,#226,#227);
#197=AXIS2_PLACEMENT_3D('',#277,#228,#229);
#198=AXIS2_PLACEMENT_3D('',#279,#230,#231);
#199=AXIS2_PLACEMENT_3D('',#281,#233,#234);
#200=AXIS2_PLACEMENT_3D('',#287,#238,#239);
#201=AXIS2_PLACEMENT_3D('',#289,#240,#241);
#202=AXIS2_PLACEMENT_3D('',#291,#242,#243);
#203=AXIS2_PLACEMENT_3D('',#293,#245,#246);
#204=AXIS2_PLACEMENT_3D('',#296,#249,#250);
#205=AXIS2_PLACEMENT_3D('',#297,#251,#252);
#206=DIRECTION('axis',(0.,0.,1.));
#207=DIRECTION('refdir',(1.,0.,0.));
#208=DIRECTION('center_axis',(0.,1.,0.));
#209=DIRECTION('ref_axis',(1.,0.,0.));
#210=DIRECTION('center_axis',(0.,-1.,0.));
#211=DIRECTION('ref_axis',(1.,0.,0.));
#212=DIRECTION('',(0.,-1.,0.));
#213=DIRECTION('center_axis',(0.,-1.,0.));
#214=DIRECTION('ref_axis',(1.,0.,0.));
#215=DIRECTION('center_axis',(1.,0.,0.));
#216=DIRECTION('ref_axis',(0.,0.,-1.));
#217=DIRECTION('',(0.,0.,-1.));
#218=DIRECTION('',(0.,1.,0.));
#219=DIRECTION('',(0.,0.,-1.));
#220=DIRECTION('',(0.,1.,0.));
#221=DIRECTION('center_axis',(-2.52323414687536E-17,0.,1.));
#222=DIRECTION('ref_axis',(1.,0.,2.52323414687536E-17));
#223=DIRECTION('',(1.,0.,2.52323414687536E-17));
#224=DIRECTION('',(1.,0.,2.52323414687536E-17));
#225=DIRECTION('',(0.,1.,0.));
#226=DIRECTION('center_axis',(0.,1.,0.));
#227=DIRECTION('ref_axis',(-1.,0.,5.55111512312575E-15));
#228=DIRECTION('center_axis',(0.,1.,0.));
#229=DIRECTION('ref_axis',(-1.,0.,5.55111512312575E-15));
#230=DIRECTION('center_axis',(0.,1.,0.));
#231=DIRECTION('ref_axis',(-1.,0.,5.55111512312575E-15));
#232=DIRECTION('',(0.,1.,0.));
#233=DIRECTION('center_axis',(-1.,0.,0.));
#234=DIRECTION('ref_axis',(0.,0.,1.));
#235=DIRECTION('',(0.,0.,1.));
#236=DIRECTION('',(0.,0.,1.));
#237=DIRECTION('',(0.,1.,0.));
#238=DIRECTION('center_axis',(0.,1.,0.));
#239=DIRECTION('ref_axis',(-4.4408920985006E-15,0.,-1.));
#240=DIRECTION('center_axis',(0.,1.,0.));
#241=DIRECTION('ref_axis',(-4.4408920985006E-15,0.,-1.));
#242=DIRECTION('center_axis',(0.,1.,0.));
#243=DIRECTION('ref_axis',(-4.4408920985006E-15,0.,-1.));
#244=DIRECTION('',(0.,1.,0.));
#245=DIRECTION('center_axis',(0.,0.,-1.));
#246=DIRECTION('ref_axis',(-1.,0.,0.));
#247=DIRECTION('',(-1.,0.,0.));
#248=DIRECTION('',(-1.,0.,0.));
#249=DIRECTION('center_axis',(0.,1.,0.));
#250=DIRECTION('ref_axis',(0.,0.,1.));
#251=DIRECTION('center_axis',(0.,1.,0.));
#252=DIRECTION('ref_axis',(0.,0.,1.));
#253=CARTESIAN_POINT('',(0.,0.,0.));
#254=CARTESIAN_POINT('Origin',(-35.,0.,-12.5));
#255=CARTESIAN_POINT('',(-40.,6.,-12.5));
#256=CARTESIAN_POINT('Origin',(-35.,6.,-12.5));
#257=CARTESIAN_POINT('',(-40.,0.,-12.5));
#258=CARTESIAN_POINT('',(-40.,0.,-12.5));
#259=CARTESIAN_POINT('Origin',(-35.,0.,-12.5));
#260=CARTESIAN_POINT('Origin',(0.,0.,0.));
#261=CARTESIAN_POINT('',(0.,0.,0.));
#262=CARTESIAN_POINT('',(0.,0.,-25.));
#263=CARTESIAN_POINT('',(0.,0.,0.));
#264=CARTESIAN_POINT('',(0.,6.,-25.));
#265=CARTESIAN_POINT('',(0.,0.,-25.));
#266=CARTESIAN_POINT('',(0.,6.,0.));
#267=CARTESIAN_POINT('',(0.,6.,0.));
#268=CARTESIAN_POINT('',(0.,0.,0.));
#269=CARTESIAN_POINT('Origin',(-46.,0.,-2.77555756156289E-16));
#270=CARTESIAN_POINT('',(-46.,0.,-2.77555756156289E-16));
#271=CARTESIAN_POINT('',(-46.,0.,-2.77555756156289E-16));
#272=CARTESIAN_POINT('',(-46.,6.,0.));
#273=CARTESIAN_POINT('',(-46.,6.,-2.77555756156289E-16));
#274=CARTESIAN_POINT('',(-46.,0.,-2.77555756156289E-16));
#275=CARTESIAN_POINT('Origin',(-46.,0.,-2.00000000000001));
#276=CARTESIAN_POINT('',(-48.,0.,-2.));
#277=CARTESIAN_POINT('Origin',(-46.,0.,-2.00000000000001));
#278=CARTESIAN_POINT('',(-48.,6.,-2.));
#279=CARTESIAN_POINT('Origin',(-46.,6.,-2.00000000000001));
#280=CARTESIAN_POINT('',(-48.,0.,-2.));
#281=CARTESIAN_POINT('Origin',(-48.,0.,-23.));
#282=CARTESIAN_POINT('',(-48.,0.,-23.));
#283=CARTESIAN_POINT('',(-48.,0.,-23.));
#284=CARTESIAN_POINT('',(-48.,6.,-23.));
#285=CARTESIAN_POINT('',(-48.,6.,-23.));
#286=CARTESIAN_POINT('',(-48.,0.,-23.));
#287=CARTESIAN_POINT('Origin',(-46.,0.,-23.));
#288=CARTESIAN_POINT('',(-46.,0.,-25.));
#289=CARTESIAN_POINT('Origin',(-46.,0.,-23.));
#290=CARTESIAN_POINT('',(-46.,6.,-25.));
#291=CARTESIAN_POINT('Origin',(-46.,6.,-23.));
#292=CARTESIAN_POINT('',(-46.,0.,-25.));
#293=CARTESIAN_POINT('Origin',(0.,0.,-25.));
#294=CARTESIAN_POINT('',(0.,0.,-25.));
#295=CARTESIAN_POINT('',(0.,6.,-25.));
#296=CARTESIAN_POINT('Origin',(-24.,6.,-12.5));
#297=CARTESIAN_POINT('Origin',(-24.,0.,-12.5));
#298=UNCERTAINTY_MEASURE_WITH_UNIT(LENGTH_MEASURE(0.01),#302,
'DISTANCE_ACCURACY_VALUE',
'Maximum model space distance between geometric entities at asserted c
onnectivities');
#299=UNCERTAINTY_MEASURE_WITH_UNIT(LENGTH_MEASURE(0.01),#302,
'DISTANCE_ACCURACY_VALUE',
'Maximum model space distance between geometric entities at asserted c
onnectivities');
#300=(
GEOMETRIC_REPRESENTATION_CONTEXT(3)
GLOBAL_UNCERTAINTY_ASSIGNED_CONTEXT((#298))
GLOBAL_UNIT_ASSIGNED_CONTEXT((#302,#304,#305))
REPRESENTATION_CONTEXT('','3D')
);
#301=(
GEOMETRIC_REPRESENTATION_CONTEXT(3)
GLOBAL_UNCERTAINTY_ASSIGNED_CONTEXT((#299))
GLOBAL_UNIT_ASSIGNED_CONTEXT((#302,#304,#305))
REPRESENTATION_CONTEXT('','3D')
);
#302=(
LENGTH_UNIT()
NAMED_UNIT(*)
SI_UNIT(.MILLI.,.METRE.)
);
#303=(
LENGTH_UNIT()
NAMED_UNIT(*)
SI_UNIT(.CENTI.,.METRE.)
);
#304=(
NAMED_UNIT(*)
PLANE_ANGLE_UNIT()
SI_UNIT($,.RADIAN.)
);
#305=(
NAMED_UNIT(*)
SI_UNIT($,.STERADIAN.)
SOLID_ANGLE_UNIT()
);
#306=SHAPE_DEFINITION_REPRESENTATION(#307,#308);
#307=PRODUCT_DEFINITION_SHAPE('',$,#310);
#308=SHAPE_REPRESENTATION('',(#190),#300);
#309=PRODUCT_DEFINITION_CONTEXT('part definition',#314,'design');
#310=PRODUCT_DEFINITION('44114','44114',#311,#309);
#311=PRODUCT_DEFINITION_FORMATION('',$,#316);
#312=PRODUCT_RELATED_PRODUCT_CATEGORY('44114','44114',(#316));
#313=APPLICATION_PROTOCOL_DEFINITION('international standard',
'automotive_design',2009,#314);
#314=APPLICATION_CONTEXT(
'Core Data for Automotive Mechanical Design Process');
#315=PRODUCT_CONTEXT('part definition',#314,'mechanical');
#316=PRODUCT('44114','44114',$,(#315));
#317=PRESENTATION_STYLE_ASSIGNMENT((#318));
#318=SURFACE_STYLE_USAGE(.BOTH.,#321);
#319=SURFACE_STYLE_RENDERING_WITH_PROPERTIES($,#325,(#320));
#320=SURFACE_STYLE_TRANSPARENT(0.);
#321=SURFACE_SIDE_STYLE('',(#322,#319));
#322=SURFACE_STYLE_FILL_AREA(#323);
#323=FILL_AREA_STYLE('',(#324));
#324=FILL_AREA_STYLE_COLOUR('',#325);
#325=COLOUR_RGB('',0.0196078431372549,0.0196078431372549,0.0196078431372549);
ENDSEC;
END-ISO-10303-21;
