ISO-10303-21;
HEADER;
/* Generated by software containing ST-Developer
 * from STEP Tools, Inc. (www.steptools.com) 
 */

FILE_DESCRIPTION(
/* description */ (''),
/* implementation_level */ '2;1');

FILE_NAME(
/* name */ '44861.ipt.step',
/* time_stamp */ '2022-07-20T08:06:07+02:00',
/* author */ ('Abt. Technik'),
/* organization */ (''),
/* preprocessor_version */ 'ST-DEVELOPER v19.2',
/* originating_system */ 'Autodesk Inventor 2023',
/* authorisation */ '');

FILE_SCHEMA (('AUTOMOTIVE_DESIGN { 1 0 10303 214 3 1 1 }'));
ENDSEC;

DATA;
#10=MECHANICAL_DESIGN_GEOMETRIC_PRESENTATION_REPRESENTATION('',(#13),#110);
#11=SHAPE_REPRESENTATION_RELATIONSHIP('SRR','None',#117,#12);
#12=ADVANCED_BREP_SHAPE_REPRESENTATION('',(#14),#109);
#13=STYLED_ITEM('',(#126),#14);
#14=MANIFOLD_SOLID_BREP('Volumenk\X\F6rper1',#49);
#15=FACE_BOUND('',#22,.T.);
#16=PLANE('',#75);
#17=FACE_OUTER_BOUND('',#20,.T.);
#18=FACE_OUTER_BOUND('',#21,.T.);
#19=FACE_OUTER_BOUND('',#23,.T.);
#20=EDGE_LOOP('',(#36,#37,#38));
#21=EDGE_LOOP('',(#39));
#22=EDGE_LOOP('',(#40));
#23=EDGE_LOOP('',(#41,#42,#43));
#24=CIRCLE('',#73,14.85);
#25=CIRCLE('',#74,14.85);
#26=CIRCLE('',#76,16.85);
#27=CIRCLE('',#78,16.85);
#28=VERTEX_POINT('',#97);
#29=VERTEX_POINT('',#99);
#30=VERTEX_POINT('',#102);
#31=VERTEX_POINT('',#105);
#32=EDGE_CURVE('',#28,#28,#24,.T.);
#33=EDGE_CURVE('',#28,#29,#25,.T.);
#34=EDGE_CURVE('',#30,#30,#26,.T.);
#35=EDGE_CURVE('',#31,#30,#27,.T.);
#36=ORIENTED_EDGE('',*,*,#32,.F.);
#37=ORIENTED_EDGE('',*,*,#33,.T.);
#38=ORIENTED_EDGE('',*,*,#33,.F.);
#39=ORIENTED_EDGE('',*,*,#34,.F.);
#40=ORIENTED_EDGE('',*,*,#32,.T.);
#41=ORIENTED_EDGE('',*,*,#34,.T.);
#42=ORIENTED_EDGE('',*,*,#35,.F.);
#43=ORIENTED_EDGE('',*,*,#35,.T.);
#44=SPHERICAL_SURFACE('',#72,14.85);
#45=SPHERICAL_SURFACE('',#77,16.85);
#46=ADVANCED_FACE('',(#17),#44,.F.);
#47=ADVANCED_FACE('',(#18,#15),#16,.T.);
#48=ADVANCED_FACE('',(#19),#45,.T.);
#49=CLOSED_SHELL('',(#46,#47,#48));
#50=DERIVED_UNIT_ELEMENT(#53,1.);
#51=DERIVED_UNIT_ELEMENT(#112,-3.);
#52=DIMENSIONAL_EXPONENTS(0.,1.,0.,0.,0.,0.,0.);
#53=(
CONVERSION_BASED_UNIT('gram',#55)
MASS_UNIT()
NAMED_UNIT(#52)
);
#54=(
MASS_UNIT()
NAMED_UNIT(*)
SI_UNIT(.KILO.,.GRAM.)
);
#55=MASS_MEASURE_WITH_UNIT(MASS_MEASURE(0.001),#54);
#56=DERIVED_UNIT((#50,#51));
#57=MEASURE_REPRESENTATION_ITEM('density measure',
POSITIVE_RATIO_MEASURE(8.),#56);
#58=PROPERTY_DEFINITION_REPRESENTATION(#63,#60);
#59=PROPERTY_DEFINITION_REPRESENTATION(#64,#61);
#60=REPRESENTATION('material name',(#62),#109);
#61=REPRESENTATION('density',(#57),#109);
#62=DESCRIPTIVE_REPRESENTATION_ITEM('Edelstahl AISI 304',
'Edelstahl AISI 304');
#63=PROPERTY_DEFINITION('material property','material name',#119);
#64=PROPERTY_DEFINITION('material property','density of part',#119);
#65=DATE_TIME_ROLE('creation_date');
#66=APPLIED_DATE_AND_TIME_ASSIGNMENT(#67,#65,(#119));
#67=DATE_AND_TIME(#68,#69);
#68=CALENDAR_DATE(2021,10,6);
#69=LOCAL_TIME(0,0,0.,#70);
#70=COORDINATED_UNIVERSAL_TIME_OFFSET(0,0,.BEHIND.);
#71=AXIS2_PLACEMENT_3D('placement',#95,#79,#80);
#72=AXIS2_PLACEMENT_3D('',#96,#81,#82);
#73=AXIS2_PLACEMENT_3D('',#98,#83,#84);
#74=AXIS2_PLACEMENT_3D('',#100,#85,#86);
#75=AXIS2_PLACEMENT_3D('',#101,#87,#88);
#76=AXIS2_PLACEMENT_3D('',#103,#89,#90);
#77=AXIS2_PLACEMENT_3D('',#104,#91,#92);
#78=AXIS2_PLACEMENT_3D('',#106,#93,#94);
#79=DIRECTION('axis',(0.,0.,1.));
#80=DIRECTION('refdir',(1.,0.,0.));
#81=DIRECTION('center_axis',(0.,1.,-6.12323399573677E-17));
#82=DIRECTION('ref_axis',(0.,0.,-1.));
#83=DIRECTION('center_axis',(0.,1.,0.));
#84=DIRECTION('ref_axis',(0.,0.,1.));
#85=DIRECTION('center_axis',(-1.,0.,1.22464679914735E-16));
#86=DIRECTION('ref_axis',(1.22464679914735E-16,0.,1.));
#87=DIRECTION('center_axis',(0.,-1.,0.));
#88=DIRECTION('ref_axis',(0.,0.,-1.));
#89=DIRECTION('center_axis',(0.,1.,0.));
#90=DIRECTION('ref_axis',(1.,0.,0.));
#91=DIRECTION('center_axis',(0.,1.,-6.12323399573677E-17));
#92=DIRECTION('ref_axis',(0.,0.,-1.));
#93=DIRECTION('center_axis',(1.,0.,-1.22464679914735E-16));
#94=DIRECTION('ref_axis',(1.22464679914735E-16,0.,1.));
#95=CARTESIAN_POINT('',(0.,0.,0.));
#96=CARTESIAN_POINT('Origin',(0.,0.,0.));
#97=CARTESIAN_POINT('',(1.81860049673382E-15,0.,14.85));
#98=CARTESIAN_POINT('Origin',(0.,0.,0.));
#99=CARTESIAN_POINT('',(1.11357163862643E-31,14.85,9.0930024836691E-16));
#100=CARTESIAN_POINT('Origin',(0.,0.,0.));
#101=CARTESIAN_POINT('Origin',(-16.85,0.,0.));
#102=CARTESIAN_POINT('',(2.06352985656329E-15,0.,16.85));
#103=CARTESIAN_POINT('Origin',(0.,0.,0.));
#104=CARTESIAN_POINT('Origin',(0.,0.,0.));
#105=CARTESIAN_POINT('',(1.26354761689262E-31,16.85,1.03176492828165E-15));
#106=CARTESIAN_POINT('Origin',(0.,0.,0.));
#107=UNCERTAINTY_MEASURE_WITH_UNIT(LENGTH_MEASURE(0.01),#111,
'DISTANCE_ACCURACY_VALUE',
'Maximum model space distance between geometric entities at asserted c
onnectivities');
#108=UNCERTAINTY_MEASURE_WITH_UNIT(LENGTH_MEASURE(0.01),#111,
'DISTANCE_ACCURACY_VALUE',
'Maximum model space distance between geometric entities at asserted c
onnectivities');
#109=(
GEOMETRIC_REPRESENTATION_CONTEXT(3)
GLOBAL_UNCERTAINTY_ASSIGNED_CONTEXT((#107))
GLOBAL_UNIT_ASSIGNED_CONTEXT((#111,#113,#114))
REPRESENTATION_CONTEXT('','3D')
);
#110=(
GEOMETRIC_REPRESENTATION_CONTEXT(3)
GLOBAL_UNCERTAINTY_ASSIGNED_CONTEXT((#108))
GLOBAL_UNIT_ASSIGNED_CONTEXT((#111,#113,#114))
REPRESENTATION_CONTEXT('','3D')
);
#111=(
LENGTH_UNIT()
NAMED_UNIT(*)
SI_UNIT(.MILLI.,.METRE.)
);
#112=(
LENGTH_UNIT()
NAMED_UNIT(*)
SI_UNIT(.CENTI.,.METRE.)
);
#113=(
NAMED_UNIT(*)
PLANE_ANGLE_UNIT()
SI_UNIT($,.RADIAN.)
);
#114=(
NAMED_UNIT(*)
SI_UNIT($,.STERADIAN.)
SOLID_ANGLE_UNIT()
);
#115=SHAPE_DEFINITION_REPRESENTATION(#116,#117);
#116=PRODUCT_DEFINITION_SHAPE('',$,#119);
#117=SHAPE_REPRESENTATION('',(#71),#109);
#118=PRODUCT_DEFINITION_CONTEXT('part definition',#123,'design');
#119=PRODUCT_DEFINITION('44861','44861',#120,#118);
#120=PRODUCT_DEFINITION_FORMATION('',$,#125);
#121=PRODUCT_RELATED_PRODUCT_CATEGORY('44861','44861',(#125));
#122=APPLICATION_PROTOCOL_DEFINITION('international standard',
'automotive_design',2009,#123);
#123=APPLICATION_CONTEXT(
'Core Data for Automotive Mechanical Design Process');
#124=PRODUCT_CONTEXT('part definition',#123,'mechanical');
#125=PRODUCT('44861','44861',$,(#124));
#126=PRESENTATION_STYLE_ASSIGNMENT((#127));
#127=SURFACE_STYLE_USAGE(.BOTH.,#130);
#128=SURFACE_STYLE_RENDERING_WITH_PROPERTIES($,#134,(#129));
#129=SURFACE_STYLE_TRANSPARENT(0.);
#130=SURFACE_SIDE_STYLE('',(#131,#128));
#131=SURFACE_STYLE_FILL_AREA(#132);
#132=FILL_AREA_STYLE('',(#133));
#133=FILL_AREA_STYLE_COLOUR('',#134);
#134=COLOUR_RGB('',0.0196078431372549,0.0196078431372549,0.0196078431372549);
ENDSEC;
END-ISO-10303-21;
