ISO-10303-21;
HEADER;
/* Generated by software containing ST-Developer
 * from STEP Tools, Inc. (www.steptools.com) 
 */

FILE_DESCRIPTION(
/* description */ (''),
/* implementation_level */ '2;1');

FILE_NAME(
/* name */ 
'C:\\Users\\O.Boryczka\\Desktop\\Korrigierte Zeichnungen\\Abschlusssto
pfen rund V2A\\IPT_Daten\\Klebestopfen\\48002.ipt.step',
/* time_stamp */ '2022-07-18T12:52:38+02:00',
/* author */ ('Abt. Technik'),
/* organization */ (''),
/* preprocessor_version */ 'ST-DEVELOPER v18.1',
/* originating_system */ 'Autodesk Inventor 2022',
/* authorisation */ '');

FILE_SCHEMA (('AUTOMOTIVE_DESIGN { 1 0 10303 214 3 1 1 }'));
ENDSEC;

DATA;
#10=MECHANICAL_DESIGN_GEOMETRIC_PRESENTATION_REPRESENTATION('',(#13),#254);
#11=SHAPE_REPRESENTATION_RELATIONSHIP('SRR','None',#261,#12);
#12=ADVANCED_BREP_SHAPE_REPRESENTATION('',(#14),#253);
#13=STYLED_ITEM('',(#270),#14);
#14=MANIFOLD_SOLID_BREP('Volumenk\X\F6rper1',#131);
#15=TOROIDAL_SURFACE('',#160,20.7,0.5);
#16=FACE_BOUND('',#42,.T.);
#17=FACE_BOUND('',#47,.T.);
#18=CIRCLE('',#156,19.2);
#19=CIRCLE('',#157,19.2);
#20=CIRCLE('',#159,17.2);
#21=CIRCLE('',#161,20.7);
#22=CIRCLE('',#162,0.5);
#23=CIRCLE('',#163,21.2);
#24=CIRCLE('',#164,21.2);
#25=CIRCLE('',#166,21.2);
#26=CIRCLE('',#170,17.2);
#27=CYLINDRICAL_SURFACE('',#155,19.2);
#28=CYLINDRICAL_SURFACE('',#165,21.2);
#29=CYLINDRICAL_SURFACE('',#171,17.2);
#30=FACE_OUTER_BOUND('',#39,.T.);
#31=FACE_OUTER_BOUND('',#40,.T.);
#32=FACE_OUTER_BOUND('',#41,.T.);
#33=FACE_OUTER_BOUND('',#43,.T.);
#34=FACE_OUTER_BOUND('',#44,.T.);
#35=FACE_OUTER_BOUND('',#45,.T.);
#36=FACE_OUTER_BOUND('',#46,.T.);
#37=FACE_OUTER_BOUND('',#48,.T.);
#38=FACE_OUTER_BOUND('',#49,.T.);
#39=EDGE_LOOP('',(#87,#88,#89,#90));
#40=EDGE_LOOP('',(#91,#92,#93,#94));
#41=EDGE_LOOP('',(#95,#96));
#42=EDGE_LOOP('',(#97));
#43=EDGE_LOOP('',(#98,#99,#100,#101,#102));
#44=EDGE_LOOP('',(#103,#104,#105,#106,#107));
#45=EDGE_LOOP('',(#108));
#46=EDGE_LOOP('',(#109));
#47=EDGE_LOOP('',(#110,#111));
#48=EDGE_LOOP('',(#112));
#49=EDGE_LOOP('',(#113,#114,#115,#116));
#50=LINE('',#220,#56);
#51=LINE('',#222,#57);
#52=LINE('',#224,#58);
#53=LINE('',#225,#59);
#54=LINE('',#242,#60);
#55=LINE('',#250,#61);
#56=VECTOR('',#176,10.);
#57=VECTOR('',#177,10.);
#58=VECTOR('',#178,10.);
#59=VECTOR('',#179,10.);
#60=VECTOR('',#202,21.2);
#61=VECTOR('',#215,17.2);
#62=VERTEX_POINT('',#218);
#63=VERTEX_POINT('',#219);
#64=VERTEX_POINT('',#221);
#65=VERTEX_POINT('',#223);
#66=VERTEX_POINT('',#230);
#67=VERTEX_POINT('',#233);
#68=VERTEX_POINT('',#235);
#69=VERTEX_POINT('',#237);
#70=VERTEX_POINT('',#241);
#71=VERTEX_POINT('',#247);
#72=EDGE_CURVE('',#62,#63,#50,.T.);
#73=EDGE_CURVE('',#64,#62,#51,.T.);
#74=EDGE_CURVE('',#65,#64,#52,.T.);
#75=EDGE_CURVE('',#63,#65,#53,.T.);
#76=EDGE_CURVE('',#63,#65,#18,.T.);
#77=EDGE_CURVE('',#62,#64,#19,.T.);
#78=EDGE_CURVE('',#66,#66,#20,.T.);
#79=EDGE_CURVE('',#67,#67,#21,.T.);
#80=EDGE_CURVE('',#67,#68,#22,.T.);
#81=EDGE_CURVE('',#68,#69,#23,.T.);
#82=EDGE_CURVE('',#69,#68,#24,.T.);
#83=EDGE_CURVE('',#69,#70,#54,.T.);
#84=EDGE_CURVE('',#70,#70,#25,.T.);
#85=EDGE_CURVE('',#71,#71,#26,.T.);
#86=EDGE_CURVE('',#71,#66,#55,.T.);
#87=ORIENTED_EDGE('',*,*,#72,.F.);
#88=ORIENTED_EDGE('',*,*,#73,.F.);
#89=ORIENTED_EDGE('',*,*,#74,.F.);
#90=ORIENTED_EDGE('',*,*,#75,.F.);
#91=ORIENTED_EDGE('',*,*,#72,.T.);
#92=ORIENTED_EDGE('',*,*,#76,.T.);
#93=ORIENTED_EDGE('',*,*,#74,.T.);
#94=ORIENTED_EDGE('',*,*,#77,.F.);
#95=ORIENTED_EDGE('',*,*,#75,.T.);
#96=ORIENTED_EDGE('',*,*,#76,.F.);
#97=ORIENTED_EDGE('',*,*,#78,.F.);
#98=ORIENTED_EDGE('',*,*,#79,.T.);
#99=ORIENTED_EDGE('',*,*,#80,.T.);
#100=ORIENTED_EDGE('',*,*,#81,.T.);
#101=ORIENTED_EDGE('',*,*,#82,.T.);
#102=ORIENTED_EDGE('',*,*,#80,.F.);
#103=ORIENTED_EDGE('',*,*,#82,.F.);
#104=ORIENTED_EDGE('',*,*,#83,.T.);
#105=ORIENTED_EDGE('',*,*,#84,.T.);
#106=ORIENTED_EDGE('',*,*,#83,.F.);
#107=ORIENTED_EDGE('',*,*,#81,.F.);
#108=ORIENTED_EDGE('',*,*,#79,.F.);
#109=ORIENTED_EDGE('',*,*,#84,.F.);
#110=ORIENTED_EDGE('',*,*,#77,.T.);
#111=ORIENTED_EDGE('',*,*,#73,.T.);
#112=ORIENTED_EDGE('',*,*,#85,.T.);
#113=ORIENTED_EDGE('',*,*,#85,.F.);
#114=ORIENTED_EDGE('',*,*,#86,.T.);
#115=ORIENTED_EDGE('',*,*,#78,.T.);
#116=ORIENTED_EDGE('',*,*,#86,.F.);
#117=PLANE('',#154);
#118=PLANE('',#158);
#119=PLANE('',#167);
#120=PLANE('',#168);
#121=PLANE('',#169);
#122=ADVANCED_FACE('',(#30),#117,.F.);
#123=ADVANCED_FACE('',(#31),#27,.T.);
#124=ADVANCED_FACE('',(#32,#16),#118,.F.);
#125=ADVANCED_FACE('',(#33),#15,.T.);
#126=ADVANCED_FACE('',(#34),#28,.T.);
#127=ADVANCED_FACE('',(#35),#119,.T.);
#128=ADVANCED_FACE('',(#36,#17),#120,.F.);
#129=ADVANCED_FACE('',(#37),#121,.F.);
#130=ADVANCED_FACE('',(#38),#29,.F.);
#131=CLOSED_SHELL('',(#122,#123,#124,#125,#126,#127,#128,#129,#130));
#132=DERIVED_UNIT_ELEMENT(#135,1.);
#133=DERIVED_UNIT_ELEMENT(#256,-3.);
#134=DIMENSIONAL_EXPONENTS(1.,0.,0.,0.,0.,0.,0.);
#135=(
CONVERSION_BASED_UNIT('gram',#137)
MASS_UNIT()
NAMED_UNIT(#134)
);
#136=(
MASS_UNIT()
NAMED_UNIT(*)
SI_UNIT(.KILO.,.GRAM.)
);
#137=MASS_MEASURE_WITH_UNIT(MASS_MEASURE(0.001),#136);
#138=DERIVED_UNIT((#132,#133));
#139=MEASURE_REPRESENTATION_ITEM('density measure',
POSITIVE_RATIO_MEASURE(8.),#138);
#140=PROPERTY_DEFINITION_REPRESENTATION(#145,#142);
#141=PROPERTY_DEFINITION_REPRESENTATION(#146,#143);
#142=REPRESENTATION('material name',(#144),#253);
#143=REPRESENTATION('density',(#139),#253);
#144=DESCRIPTIVE_REPRESENTATION_ITEM('Edelstahl AISI 304',
'Edelstahl AISI 304');
#145=PROPERTY_DEFINITION('material property','material name',#263);
#146=PROPERTY_DEFINITION('material property','density of part',#263);
#147=DATE_TIME_ROLE('creation_date');
#148=APPLIED_DATE_AND_TIME_ASSIGNMENT(#149,#147,(#263));
#149=DATE_AND_TIME(#150,#151);
#150=CALENDAR_DATE(2021,11,5);
#151=LOCAL_TIME(0,0,0.,#152);
#152=COORDINATED_UNIVERSAL_TIME_OFFSET(0,0,.BEHIND.);
#153=AXIS2_PLACEMENT_3D('placement',#216,#172,#173);
#154=AXIS2_PLACEMENT_3D('',#217,#174,#175);
#155=AXIS2_PLACEMENT_3D('',#226,#180,#181);
#156=AXIS2_PLACEMENT_3D('',#227,#182,#183);
#157=AXIS2_PLACEMENT_3D('',#228,#184,#185);
#158=AXIS2_PLACEMENT_3D('',#229,#186,#187);
#159=AXIS2_PLACEMENT_3D('',#231,#188,#189);
#160=AXIS2_PLACEMENT_3D('',#232,#190,#191);
#161=AXIS2_PLACEMENT_3D('',#234,#192,#193);
#162=AXIS2_PLACEMENT_3D('',#236,#194,#195);
#163=AXIS2_PLACEMENT_3D('',#238,#196,#197);
#164=AXIS2_PLACEMENT_3D('',#239,#198,#199);
#165=AXIS2_PLACEMENT_3D('',#240,#200,#201);
#166=AXIS2_PLACEMENT_3D('',#243,#203,#204);
#167=AXIS2_PLACEMENT_3D('',#244,#205,#206);
#168=AXIS2_PLACEMENT_3D('',#245,#207,#208);
#169=AXIS2_PLACEMENT_3D('',#246,#209,#210);
#170=AXIS2_PLACEMENT_3D('',#248,#211,#212);
#171=AXIS2_PLACEMENT_3D('',#249,#213,#214);
#172=DIRECTION('axis',(0.,0.,1.));
#173=DIRECTION('refdir',(1.,0.,0.));
#174=DIRECTION('center_axis',(1.,0.,0.));
#175=DIRECTION('ref_axis',(0.,0.,-1.));
#176=DIRECTION('',(0.,-1.,0.));
#177=DIRECTION('',(0.,0.,1.));
#178=DIRECTION('',(0.,1.,0.));
#179=DIRECTION('',(0.,0.,-1.));
#180=DIRECTION('center_axis',(0.,1.,0.));
#181=DIRECTION('ref_axis',(1.,0.,1.22464679914735E-16));
#182=DIRECTION('center_axis',(0.,1.,0.));
#183=DIRECTION('ref_axis',(-1.,0.,0.));
#184=DIRECTION('center_axis',(0.,1.,0.));
#185=DIRECTION('ref_axis',(-1.,0.,0.));
#186=DIRECTION('center_axis',(0.,1.,0.));
#187=DIRECTION('ref_axis',(0.,0.,1.));
#188=DIRECTION('center_axis',(0.,-1.,0.));
#189=DIRECTION('ref_axis',(1.,0.,0.));
#190=DIRECTION('center_axis',(0.,1.,0.));
#191=DIRECTION('ref_axis',(0.,0.,1.));
#192=DIRECTION('center_axis',(0.,-1.,0.));
#193=DIRECTION('ref_axis',(-1.,0.,-1.22464679914735E-16));
#194=DIRECTION('center_axis',(-1.,0.,1.22464679914735E-16));
#195=DIRECTION('ref_axis',(-1.22464679914735E-16,0.,-1.));
#196=DIRECTION('center_axis',(0.,1.,0.));
#197=DIRECTION('ref_axis',(-1.,0.,-1.22464679914735E-16));
#198=DIRECTION('center_axis',(0.,1.,0.));
#199=DIRECTION('ref_axis',(-1.,0.,-1.22464679914735E-16));
#200=DIRECTION('center_axis',(0.,1.,0.));
#201=DIRECTION('ref_axis',(1.,0.,0.));
#202=DIRECTION('',(0.,-1.,0.));
#203=DIRECTION('center_axis',(0.,1.,0.));
#204=DIRECTION('ref_axis',(1.,0.,0.));
#205=DIRECTION('center_axis',(0.,1.,0.));
#206=DIRECTION('ref_axis',(0.,0.,1.));
#207=DIRECTION('center_axis',(0.,1.,0.));
#208=DIRECTION('ref_axis',(0.,0.,1.));
#209=DIRECTION('center_axis',(0.,1.,0.));
#210=DIRECTION('ref_axis',(0.,0.,1.));
#211=DIRECTION('center_axis',(0.,-1.,0.));
#212=DIRECTION('ref_axis',(1.,0.,0.));
#213=DIRECTION('center_axis',(0.,1.,0.));
#214=DIRECTION('ref_axis',(1.,0.,0.));
#215=DIRECTION('',(0.,-1.,0.));
#216=CARTESIAN_POINT('',(0.,0.,0.));
#217=CARTESIAN_POINT('Origin',(-18.7,7.5,0.));
#218=CARTESIAN_POINT('',(-18.7,15.,4.35315977193579));
#219=CARTESIAN_POINT('',(-18.7,0.,4.35315977193579));
#220=CARTESIAN_POINT('',(-18.7,0.,4.35315977193579));
#221=CARTESIAN_POINT('',(-18.7,15.,-4.35315977193579));
#222=CARTESIAN_POINT('',(-18.7,15.,-5.));
#223=CARTESIAN_POINT('',(-18.7,0.,-4.35315977193579));
#224=CARTESIAN_POINT('',(-18.7,0.,-4.35315977193579));
#225=CARTESIAN_POINT('',(-18.7,0.,0.));
#226=CARTESIAN_POINT('Origin',(0.,0.,0.));
#227=CARTESIAN_POINT('Origin',(0.,0.,0.));
#228=CARTESIAN_POINT('Origin',(0.,15.,0.));
#229=CARTESIAN_POINT('Origin',(0.,0.,0.));
#230=CARTESIAN_POINT('',(-17.2,0.,2.10639249453345E-15));
#231=CARTESIAN_POINT('Origin',(0.,0.,0.));
#232=CARTESIAN_POINT('Origin',(0.,17.5,0.));
#233=CARTESIAN_POINT('',(-2.53501887423502E-15,18.,-20.7));
#234=CARTESIAN_POINT('Origin',(0.,18.,0.));
#235=CARTESIAN_POINT('',(-2.59625121419239E-15,17.5,-21.2));
#236=CARTESIAN_POINT('Origin',(-2.53501887423502E-15,17.5,-20.7));
#237=CARTESIAN_POINT('',(-21.2,17.5,2.59625121419239E-15));
#238=CARTESIAN_POINT('Origin',(0.,17.5,0.));
#239=CARTESIAN_POINT('Origin',(0.,17.5,0.));
#240=CARTESIAN_POINT('Origin',(0.,15.,0.));
#241=CARTESIAN_POINT('',(-21.2,15.,2.59625121419239E-15));
#242=CARTESIAN_POINT('',(-21.2,15.,2.59625121419239E-15));
#243=CARTESIAN_POINT('Origin',(0.,15.,0.));
#244=CARTESIAN_POINT('Origin',(0.,18.,0.));
#245=CARTESIAN_POINT('Origin',(0.,15.,0.));
#246=CARTESIAN_POINT('Origin',(0.,15.,0.));
#247=CARTESIAN_POINT('',(-17.2,15.,2.10639249453345E-15));
#248=CARTESIAN_POINT('Origin',(0.,15.,0.));
#249=CARTESIAN_POINT('Origin',(0.,0.,0.));
#250=CARTESIAN_POINT('',(-17.2,0.,2.10639249453345E-15));
#251=UNCERTAINTY_MEASURE_WITH_UNIT(LENGTH_MEASURE(0.01),#255,
'DISTANCE_ACCURACY_VALUE',
'Maximum model space distance between geometric entities at asserted c
onnectivities');
#252=UNCERTAINTY_MEASURE_WITH_UNIT(LENGTH_MEASURE(0.01),#255,
'DISTANCE_ACCURACY_VALUE',
'Maximum model space distance between geometric entities at asserted c
onnectivities');
#253=(
GEOMETRIC_REPRESENTATION_CONTEXT(3)
GLOBAL_UNCERTAINTY_ASSIGNED_CONTEXT((#251))
GLOBAL_UNIT_ASSIGNED_CONTEXT((#255,#257,#258))
REPRESENTATION_CONTEXT('','3D')
);
#254=(
GEOMETRIC_REPRESENTATION_CONTEXT(3)
GLOBAL_UNCERTAINTY_ASSIGNED_CONTEXT((#252))
GLOBAL_UNIT_ASSIGNED_CONTEXT((#255,#257,#258))
REPRESENTATION_CONTEXT('','3D')
);
#255=(
LENGTH_UNIT()
NAMED_UNIT(*)
SI_UNIT(.MILLI.,.METRE.)
);
#256=(
LENGTH_UNIT()
NAMED_UNIT(*)
SI_UNIT(.CENTI.,.METRE.)
);
#257=(
NAMED_UNIT(*)
PLANE_ANGLE_UNIT()
SI_UNIT($,.RADIAN.)
);
#258=(
NAMED_UNIT(*)
SI_UNIT($,.STERADIAN.)
SOLID_ANGLE_UNIT()
);
#259=SHAPE_DEFINITION_REPRESENTATION(#260,#261);
#260=PRODUCT_DEFINITION_SHAPE('',$,#263);
#261=SHAPE_REPRESENTATION('',(#153),#253);
#262=PRODUCT_DEFINITION_CONTEXT('part definition',#267,'design');
#263=PRODUCT_DEFINITION('48002','48002',#264,#262);
#264=PRODUCT_DEFINITION_FORMATION('',$,#269);
#265=PRODUCT_RELATED_PRODUCT_CATEGORY('48002','48002',(#269));
#266=APPLICATION_PROTOCOL_DEFINITION('international standard',
'automotive_design',2009,#267);
#267=APPLICATION_CONTEXT(
'Core Data for Automotive Mechanical Design Process');
#268=PRODUCT_CONTEXT('part definition',#267,'mechanical');
#269=PRODUCT('48002','48002',$,(#268));
#270=PRESENTATION_STYLE_ASSIGNMENT((#271));
#271=SURFACE_STYLE_USAGE(.BOTH.,#274);
#272=SURFACE_STYLE_RENDERING_WITH_PROPERTIES($,#278,(#273));
#273=SURFACE_STYLE_TRANSPARENT(0.);
#274=SURFACE_SIDE_STYLE('',(#275,#272));
#275=SURFACE_STYLE_FILL_AREA(#276);
#276=FILL_AREA_STYLE('',(#277));
#277=FILL_AREA_STYLE_COLOUR('',#278);
#278=COLOUR_RGB('',0.956862745098039,0.956862745098039,0.956862745098039);
ENDSEC;
END-ISO-10303-21;
