ISO-10303-21;
HEADER;
/* Generated by software containing ST-Developer
 * from STEP Tools, Inc. (www.steptools.com) 
 */

FILE_DESCRIPTION(
/* description */ (''),
/* implementation_level */ '2;1');

FILE_NAME(
/* name */ 
'C:\\Users\\O.Boryczka\\Desktop\\Korrigierte Zeichnungen\\Abschlusssto
pfen rund V2A\\IPT_Daten\\Klebestopfen\\48014.ipt.step',
/* time_stamp */ '2022-07-18T12:52:41+02:00',
/* author */ ('Abt. Technik'),
/* organization */ (''),
/* preprocessor_version */ 'ST-DEVELOPER v18.1',
/* originating_system */ 'Autodesk Inventor 2022',
/* authorisation */ '');

FILE_SCHEMA (('AUTOMOTIVE_DESIGN { 1 0 10303 214 3 1 1 }'));
ENDSEC;

DATA;
#10=MECHANICAL_DESIGN_GEOMETRIC_PRESENTATION_REPRESENTATION('',(#13),#335);
#11=SHAPE_REPRESENTATION_RELATIONSHIP('SRR','None',#342,#12);
#12=ADVANCED_BREP_SHAPE_REPRESENTATION('',(#14),#334);
#13=STYLED_ITEM('',(#351),#14);
#14=MANIFOLD_SOLID_BREP('Volumenk\X\F6rper1',#174);
#15=CYLINDRICAL_SURFACE('',#207,17.2);
#16=CYLINDRICAL_SURFACE('',#215,21.2);
#17=CYLINDRICAL_SURFACE('',#216,14.5);
#18=CYLINDRICAL_SURFACE('',#219,18.25);
#19=SPHERICAL_SURFACE('',#206,55.);
#20=SPHERICAL_SURFACE('',#214,58.);
#21=TOROIDAL_SURFACE('',#201,16.7,0.5);
#22=TOROIDAL_SURFACE('',#209,20.7,0.5);
#23=FACE_BOUND('',#54,.T.);
#24=FACE_BOUND('',#64,.T.);
#25=FACE_BOUND('',#66,.T.);
#26=CIRCLE('',#199,21.2);
#27=CIRCLE('',#200,18.25);
#28=CIRCLE('',#202,17.2);
#29=CIRCLE('',#203,0.5);
#30=CIRCLE('',#204,16.8532110091743);
#31=CIRCLE('',#205,17.2);
#32=CIRCLE('',#208,17.2);
#33=CIRCLE('',#210,20.88);
#34=CIRCLE('',#211,0.5);
#35=CIRCLE('',#212,21.2);
#36=CIRCLE('',#213,21.2);
#37=CIRCLE('',#217,14.5);
#38=CIRCLE('',#218,14.5);
#39=CIRCLE('',#220,18.25);
#40=FACE_OUTER_BOUND('',#52,.T.);
#41=FACE_OUTER_BOUND('',#53,.T.);
#42=FACE_OUTER_BOUND('',#55,.T.);
#43=FACE_OUTER_BOUND('',#56,.T.);
#44=FACE_OUTER_BOUND('',#57,.T.);
#45=FACE_OUTER_BOUND('',#58,.T.);
#46=FACE_OUTER_BOUND('',#59,.T.);
#47=FACE_OUTER_BOUND('',#60,.T.);
#48=FACE_OUTER_BOUND('',#61,.T.);
#49=FACE_OUTER_BOUND('',#62,.T.);
#50=FACE_OUTER_BOUND('',#63,.T.);
#51=FACE_OUTER_BOUND('',#65,.T.);
#52=EDGE_LOOP('',(#116,#117,#118,#119));
#53=EDGE_LOOP('',(#120));
#54=EDGE_LOOP('',(#121,#122));
#55=EDGE_LOOP('',(#123,#124,#125,#126,#127));
#56=EDGE_LOOP('',(#128));
#57=EDGE_LOOP('',(#129,#130,#131,#132,#133));
#58=EDGE_LOOP('',(#134,#135,#136,#137,#138));
#59=EDGE_LOOP('',(#139));
#60=EDGE_LOOP('',(#140,#141,#142,#143,#144));
#61=EDGE_LOOP('',(#145,#146,#147,#148));
#62=EDGE_LOOP('',(#149,#150,#151,#152));
#63=EDGE_LOOP('',(#153));
#64=EDGE_LOOP('',(#154));
#65=EDGE_LOOP('',(#155,#156));
#66=EDGE_LOOP('',(#157));
#67=LINE('',#288,#74);
#68=LINE('',#290,#75);
#69=LINE('',#292,#76);
#70=LINE('',#293,#77);
#71=LINE('',#309,#78);
#72=LINE('',#321,#79);
#73=LINE('',#326,#80);
#74=VECTOR('',#227,10.);
#75=VECTOR('',#228,10.);
#76=VECTOR('',#229,10.);
#77=VECTOR('',#230,10.);
#78=VECTOR('',#251,17.2);
#79=VECTOR('',#268,21.2);
#80=VECTOR('',#273,14.5);
#81=VERTEX_POINT('',#286);
#82=VERTEX_POINT('',#287);
#83=VERTEX_POINT('',#289);
#84=VERTEX_POINT('',#291);
#85=VERTEX_POINT('',#295);
#86=VERTEX_POINT('',#299);
#87=VERTEX_POINT('',#300);
#88=VERTEX_POINT('',#302);
#89=VERTEX_POINT('',#308);
#90=VERTEX_POINT('',#312);
#91=VERTEX_POINT('',#314);
#92=VERTEX_POINT('',#316);
#93=VERTEX_POINT('',#323);
#94=VERTEX_POINT('',#325);
#95=EDGE_CURVE('',#81,#82,#67,.T.);
#96=EDGE_CURVE('',#83,#81,#68,.T.);
#97=EDGE_CURVE('',#84,#83,#69,.T.);
#98=EDGE_CURVE('',#82,#84,#70,.T.);
#99=EDGE_CURVE('',#85,#85,#26,.T.);
#100=EDGE_CURVE('',#84,#82,#27,.T.);
#101=EDGE_CURVE('',#86,#87,#28,.T.);
#102=EDGE_CURVE('',#87,#88,#29,.T.);
#103=EDGE_CURVE('',#88,#88,#30,.T.);
#104=EDGE_CURVE('',#87,#86,#31,.T.);
#105=EDGE_CURVE('',#86,#89,#71,.T.);
#106=EDGE_CURVE('',#89,#89,#32,.T.);
#107=EDGE_CURVE('',#90,#90,#33,.T.);
#108=EDGE_CURVE('',#90,#91,#34,.T.);
#109=EDGE_CURVE('',#91,#92,#35,.T.);
#110=EDGE_CURVE('',#92,#91,#36,.T.);
#111=EDGE_CURVE('',#92,#85,#72,.T.);
#112=EDGE_CURVE('',#93,#93,#37,.T.);
#113=EDGE_CURVE('',#93,#94,#73,.T.);
#114=EDGE_CURVE('',#94,#94,#38,.T.);
#115=EDGE_CURVE('',#83,#81,#39,.T.);
#116=ORIENTED_EDGE('',*,*,#95,.F.);
#117=ORIENTED_EDGE('',*,*,#96,.F.);
#118=ORIENTED_EDGE('',*,*,#97,.F.);
#119=ORIENTED_EDGE('',*,*,#98,.F.);
#120=ORIENTED_EDGE('',*,*,#99,.F.);
#121=ORIENTED_EDGE('',*,*,#100,.T.);
#122=ORIENTED_EDGE('',*,*,#98,.T.);
#123=ORIENTED_EDGE('',*,*,#101,.T.);
#124=ORIENTED_EDGE('',*,*,#102,.T.);
#125=ORIENTED_EDGE('',*,*,#103,.T.);
#126=ORIENTED_EDGE('',*,*,#102,.F.);
#127=ORIENTED_EDGE('',*,*,#104,.T.);
#128=ORIENTED_EDGE('',*,*,#103,.F.);
#129=ORIENTED_EDGE('',*,*,#101,.F.);
#130=ORIENTED_EDGE('',*,*,#105,.T.);
#131=ORIENTED_EDGE('',*,*,#106,.F.);
#132=ORIENTED_EDGE('',*,*,#105,.F.);
#133=ORIENTED_EDGE('',*,*,#104,.F.);
#134=ORIENTED_EDGE('',*,*,#107,.T.);
#135=ORIENTED_EDGE('',*,*,#108,.T.);
#136=ORIENTED_EDGE('',*,*,#109,.T.);
#137=ORIENTED_EDGE('',*,*,#110,.T.);
#138=ORIENTED_EDGE('',*,*,#108,.F.);
#139=ORIENTED_EDGE('',*,*,#107,.F.);
#140=ORIENTED_EDGE('',*,*,#110,.F.);
#141=ORIENTED_EDGE('',*,*,#111,.T.);
#142=ORIENTED_EDGE('',*,*,#99,.T.);
#143=ORIENTED_EDGE('',*,*,#111,.F.);
#144=ORIENTED_EDGE('',*,*,#109,.F.);
#145=ORIENTED_EDGE('',*,*,#112,.F.);
#146=ORIENTED_EDGE('',*,*,#113,.T.);
#147=ORIENTED_EDGE('',*,*,#114,.T.);
#148=ORIENTED_EDGE('',*,*,#113,.F.);
#149=ORIENTED_EDGE('',*,*,#95,.T.);
#150=ORIENTED_EDGE('',*,*,#100,.F.);
#151=ORIENTED_EDGE('',*,*,#97,.T.);
#152=ORIENTED_EDGE('',*,*,#115,.T.);
#153=ORIENTED_EDGE('',*,*,#106,.T.);
#154=ORIENTED_EDGE('',*,*,#112,.T.);
#155=ORIENTED_EDGE('',*,*,#96,.T.);
#156=ORIENTED_EDGE('',*,*,#115,.F.);
#157=ORIENTED_EDGE('',*,*,#114,.F.);
#158=PLANE('',#197);
#159=PLANE('',#198);
#160=PLANE('',#221);
#161=PLANE('',#222);
#162=ADVANCED_FACE('',(#40),#158,.F.);
#163=ADVANCED_FACE('',(#41,#23),#159,.F.);
#164=ADVANCED_FACE('',(#42),#21,.F.);
#165=ADVANCED_FACE('',(#43),#19,.F.);
#166=ADVANCED_FACE('',(#44),#15,.F.);
#167=ADVANCED_FACE('',(#45),#22,.T.);
#168=ADVANCED_FACE('',(#46),#20,.T.);
#169=ADVANCED_FACE('',(#47),#16,.T.);
#170=ADVANCED_FACE('',(#48),#17,.F.);
#171=ADVANCED_FACE('',(#49),#18,.T.);
#172=ADVANCED_FACE('',(#50,#24),#160,.T.);
#173=ADVANCED_FACE('',(#51,#25),#161,.F.);
#174=CLOSED_SHELL('',(#162,#163,#164,#165,#166,#167,#168,#169,#170,#171,
#172,#173));
#175=DERIVED_UNIT_ELEMENT(#178,1.);
#176=DERIVED_UNIT_ELEMENT(#337,-3.);
#177=DIMENSIONAL_EXPONENTS(1.,0.,0.,0.,0.,0.,0.);
#178=(
CONVERSION_BASED_UNIT('gram',#180)
MASS_UNIT()
NAMED_UNIT(#177)
);
#179=(
MASS_UNIT()
NAMED_UNIT(*)
SI_UNIT(.KILO.,.GRAM.)
);
#180=MASS_MEASURE_WITH_UNIT(MASS_MEASURE(0.001),#179);
#181=DERIVED_UNIT((#175,#176));
#182=MEASURE_REPRESENTATION_ITEM('density measure',
POSITIVE_RATIO_MEASURE(8.),#181);
#183=PROPERTY_DEFINITION_REPRESENTATION(#188,#185);
#184=PROPERTY_DEFINITION_REPRESENTATION(#189,#186);
#185=REPRESENTATION('material name',(#187),#334);
#186=REPRESENTATION('density',(#182),#334);
#187=DESCRIPTIVE_REPRESENTATION_ITEM('Edelstahl AISI 304',
'Edelstahl AISI 304');
#188=PROPERTY_DEFINITION('material property','material name',#344);
#189=PROPERTY_DEFINITION('material property','density of part',#344);
#190=DATE_TIME_ROLE('creation_date');
#191=APPLIED_DATE_AND_TIME_ASSIGNMENT(#192,#190,(#344));
#192=DATE_AND_TIME(#193,#194);
#193=CALENDAR_DATE(2021,11,5);
#194=LOCAL_TIME(0,0,0.,#195);
#195=COORDINATED_UNIVERSAL_TIME_OFFSET(0,0,.BEHIND.);
#196=AXIS2_PLACEMENT_3D('placement',#284,#223,#224);
#197=AXIS2_PLACEMENT_3D('',#285,#225,#226);
#198=AXIS2_PLACEMENT_3D('',#294,#231,#232);
#199=AXIS2_PLACEMENT_3D('',#296,#233,#234);
#200=AXIS2_PLACEMENT_3D('',#297,#235,#236);
#201=AXIS2_PLACEMENT_3D('',#298,#237,#238);
#202=AXIS2_PLACEMENT_3D('',#301,#239,#240);
#203=AXIS2_PLACEMENT_3D('',#303,#241,#242);
#204=AXIS2_PLACEMENT_3D('',#304,#243,#244);
#205=AXIS2_PLACEMENT_3D('',#305,#245,#246);
#206=AXIS2_PLACEMENT_3D('',#306,#247,#248);
#207=AXIS2_PLACEMENT_3D('',#307,#249,#250);
#208=AXIS2_PLACEMENT_3D('',#310,#252,#253);
#209=AXIS2_PLACEMENT_3D('',#311,#254,#255);
#210=AXIS2_PLACEMENT_3D('',#313,#256,#257);
#211=AXIS2_PLACEMENT_3D('',#315,#258,#259);
#212=AXIS2_PLACEMENT_3D('',#317,#260,#261);
#213=AXIS2_PLACEMENT_3D('',#318,#262,#263);
#214=AXIS2_PLACEMENT_3D('',#319,#264,#265);
#215=AXIS2_PLACEMENT_3D('',#320,#266,#267);
#216=AXIS2_PLACEMENT_3D('',#322,#269,#270);
#217=AXIS2_PLACEMENT_3D('',#324,#271,#272);
#218=AXIS2_PLACEMENT_3D('',#327,#274,#275);
#219=AXIS2_PLACEMENT_3D('',#328,#276,#277);
#220=AXIS2_PLACEMENT_3D('',#329,#278,#279);
#221=AXIS2_PLACEMENT_3D('',#330,#280,#281);
#222=AXIS2_PLACEMENT_3D('',#331,#282,#283);
#223=DIRECTION('axis',(0.,0.,1.));
#224=DIRECTION('refdir',(1.,0.,0.));
#225=DIRECTION('center_axis',(0.,0.,1.));
#226=DIRECTION('ref_axis',(1.,0.,0.));
#227=DIRECTION('',(0.,1.,0.));
#228=DIRECTION('',(1.,0.,0.));
#229=DIRECTION('',(0.,-1.,0.));
#230=DIRECTION('',(-1.,-4.44089209850063E-16,0.));
#231=DIRECTION('center_axis',(0.,1.,0.));
#232=DIRECTION('ref_axis',(0.,0.,1.));
#233=DIRECTION('center_axis',(0.,1.,0.));
#234=DIRECTION('ref_axis',(1.,0.,0.));
#235=DIRECTION('center_axis',(0.,1.,0.));
#236=DIRECTION('ref_axis',(-1.,0.,0.));
#237=DIRECTION('center_axis',(0.,-1.,0.));
#238=DIRECTION('ref_axis',(0.,0.,-1.));
#239=DIRECTION('center_axis',(0.,-1.,0.));
#240=DIRECTION('ref_axis',(-1.,0.,0.));
#241=DIRECTION('center_axis',(-1.,0.,-1.22464679914735E-16));
#242=DIRECTION('ref_axis',(-1.22464679914735E-16,0.,1.));
#243=DIRECTION('center_axis',(0.,1.,0.));
#244=DIRECTION('ref_axis',(-1.,0.,0.));
#245=DIRECTION('center_axis',(0.,-1.,0.));
#246=DIRECTION('ref_axis',(-1.,0.,0.));
#247=DIRECTION('center_axis',(6.12323399573677E-17,0.,1.));
#248=DIRECTION('ref_axis',(1.,0.,0.));
#249=DIRECTION('center_axis',(0.,1.,0.));
#250=DIRECTION('ref_axis',(-1.,0.,0.));
#251=DIRECTION('',(0.,-1.,0.));
#252=DIRECTION('center_axis',(0.,1.,0.));
#253=DIRECTION('ref_axis',(-1.,0.,0.));
#254=DIRECTION('center_axis',(0.,1.,0.));
#255=DIRECTION('ref_axis',(0.,0.,1.));
#256=DIRECTION('center_axis',(0.,-1.,0.));
#257=DIRECTION('ref_axis',(1.,0.,0.));
#258=DIRECTION('center_axis',(-1.,0.,1.22464679914735E-16));
#259=DIRECTION('ref_axis',(-1.22464679914735E-16,0.,-1.));
#260=DIRECTION('center_axis',(0.,1.,0.));
#261=DIRECTION('ref_axis',(1.,0.,0.));
#262=DIRECTION('center_axis',(0.,1.,0.));
#263=DIRECTION('ref_axis',(1.,0.,0.));
#264=DIRECTION('center_axis',(6.12323399573677E-17,0.,1.));
#265=DIRECTION('ref_axis',(1.,0.,0.));
#266=DIRECTION('center_axis',(0.,1.,0.));
#267=DIRECTION('ref_axis',(1.,0.,0.));
#268=DIRECTION('',(0.,-1.,0.));
#269=DIRECTION('center_axis',(0.,1.,0.));
#270=DIRECTION('ref_axis',(1.,0.,0.));
#271=DIRECTION('center_axis',(0.,-1.,0.));
#272=DIRECTION('ref_axis',(1.,0.,0.));
#273=DIRECTION('',(0.,-1.,0.));
#274=DIRECTION('center_axis',(0.,-1.,0.));
#275=DIRECTION('ref_axis',(1.,0.,0.));
#276=DIRECTION('center_axis',(0.,1.,0.));
#277=DIRECTION('ref_axis',(1.83697019872103E-16,0.,1.));
#278=DIRECTION('center_axis',(0.,1.,0.));
#279=DIRECTION('ref_axis',(-1.,0.,0.));
#280=DIRECTION('center_axis',(0.,1.,0.));
#281=DIRECTION('ref_axis',(0.,0.,1.));
#282=DIRECTION('center_axis',(0.,1.,0.));
#283=DIRECTION('ref_axis',(0.,0.,1.));
#284=CARTESIAN_POINT('',(0.,0.,0.));
#285=CARTESIAN_POINT('Origin',(-2.77555756156289E-15,7.5,-17.75));
#286=CARTESIAN_POINT('',(4.24264068711929,0.,-17.75));
#287=CARTESIAN_POINT('',(4.24264068711929,15.,-17.75));
#288=CARTESIAN_POINT('',(4.24264068711929,0.,-17.75));
#289=CARTESIAN_POINT('',(-4.24264068711929,0.,-17.75));
#290=CARTESIAN_POINT('',(-1.38777878078145E-15,0.,-17.75));
#291=CARTESIAN_POINT('',(-4.24264068711929,15.,-17.75));
#292=CARTESIAN_POINT('',(-4.24264068711929,0.,-17.75));
#293=CARTESIAN_POINT('',(4.99999999999999,15.,-17.75));
#294=CARTESIAN_POINT('Origin',(0.,15.,0.));
#295=CARTESIAN_POINT('',(-21.2,15.,2.59625121419239E-15));
#296=CARTESIAN_POINT('Origin',(0.,15.,0.));
#297=CARTESIAN_POINT('Origin',(0.,15.,0.));
#298=CARTESIAN_POINT('Origin',(0.,16.6369562484249,0.));
#299=CARTESIAN_POINT('',(17.2,16.6369562484249,2.10639249453345E-15));
#300=CARTESIAN_POINT('',(-2.10639249453345E-15,16.6369562484249,17.2));
#301=CARTESIAN_POINT('Origin',(0.,16.6369562484249,0.));
#302=CARTESIAN_POINT('',(-2.06392309177403E-15,17.1129041307269,16.8532110091743));
#303=CARTESIAN_POINT('Origin',(-2.04516015457608E-15,16.6369562484249,16.7));
#304=CARTESIAN_POINT('Origin',(0.,17.1129041307269,0.));
#305=CARTESIAN_POINT('Origin',(0.,16.6369562484249,0.));
#306=CARTESIAN_POINT('Origin',(0.,-35.2413629224966,0.));
#307=CARTESIAN_POINT('Origin',(0.,15.,0.));
#308=CARTESIAN_POINT('',(17.2,15.,-2.10639249453345E-15));
#309=CARTESIAN_POINT('',(17.2,15.,-2.10639249453345E-15));
#310=CARTESIAN_POINT('Origin',(0.,15.,0.));
#311=CARTESIAN_POINT('Origin',(0.,16.6580924124072,0.));
#312=CARTESIAN_POINT('',(-2.55706251661967E-15,17.1245685639948,-20.88));
#313=CARTESIAN_POINT('Origin',(0.,17.1245685639948,0.));
#314=CARTESIAN_POINT('',(-2.59625121419239E-15,16.6580924124072,-21.2));
#315=CARTESIAN_POINT('Origin',(-2.53501887423502E-15,16.6580924124072,-20.7));
#316=CARTESIAN_POINT('',(-21.2,16.6580924124072,2.59625121419239E-15));
#317=CARTESIAN_POINT('Origin',(0.,16.6580924124072,0.));
#318=CARTESIAN_POINT('Origin',(0.,16.6580924124072,0.));
#319=CARTESIAN_POINT('Origin',(0.,-36.9866650201696,0.));
#320=CARTESIAN_POINT('Origin',(0.,15.,0.));
#321=CARTESIAN_POINT('',(-21.2,15.,2.59625121419239E-15));
#322=CARTESIAN_POINT('Origin',(0.,0.,0.));
#323=CARTESIAN_POINT('',(-14.5,15.,1.77573785876366E-15));
#324=CARTESIAN_POINT('Origin',(0.,15.,0.));
#325=CARTESIAN_POINT('',(-14.5,0.,1.77573785876366E-15));
#326=CARTESIAN_POINT('',(-14.5,0.,1.77573785876366E-15));
#327=CARTESIAN_POINT('Origin',(0.,0.,0.));
#328=CARTESIAN_POINT('Origin',(0.,0.,0.));
#329=CARTESIAN_POINT('Origin',(0.,0.,0.));
#330=CARTESIAN_POINT('Origin',(0.,15.,0.));
#331=CARTESIAN_POINT('Origin',(0.,0.,0.));
#332=UNCERTAINTY_MEASURE_WITH_UNIT(LENGTH_MEASURE(0.01),#336,
'DISTANCE_ACCURACY_VALUE',
'Maximum model space distance between geometric entities at asserted c
onnectivities');
#333=UNCERTAINTY_MEASURE_WITH_UNIT(LENGTH_MEASURE(0.01),#336,
'DISTANCE_ACCURACY_VALUE',
'Maximum model space distance between geometric entities at asserted c
onnectivities');
#334=(
GEOMETRIC_REPRESENTATION_CONTEXT(3)
GLOBAL_UNCERTAINTY_ASSIGNED_CONTEXT((#332))
GLOBAL_UNIT_ASSIGNED_CONTEXT((#336,#338,#339))
REPRESENTATION_CONTEXT('','3D')
);
#335=(
GEOMETRIC_REPRESENTATION_CONTEXT(3)
GLOBAL_UNCERTAINTY_ASSIGNED_CONTEXT((#333))
GLOBAL_UNIT_ASSIGNED_CONTEXT((#336,#338,#339))
REPRESENTATION_CONTEXT('','3D')
);
#336=(
LENGTH_UNIT()
NAMED_UNIT(*)
SI_UNIT(.MILLI.,.METRE.)
);
#337=(
LENGTH_UNIT()
NAMED_UNIT(*)
SI_UNIT(.CENTI.,.METRE.)
);
#338=(
NAMED_UNIT(*)
PLANE_ANGLE_UNIT()
SI_UNIT($,.RADIAN.)
);
#339=(
NAMED_UNIT(*)
SI_UNIT($,.STERADIAN.)
SOLID_ANGLE_UNIT()
);
#340=SHAPE_DEFINITION_REPRESENTATION(#341,#342);
#341=PRODUCT_DEFINITION_SHAPE('',$,#344);
#342=SHAPE_REPRESENTATION('',(#196),#334);
#343=PRODUCT_DEFINITION_CONTEXT('part definition',#348,'design');
#344=PRODUCT_DEFINITION('48014','48014',#345,#343);
#345=PRODUCT_DEFINITION_FORMATION('',$,#350);
#346=PRODUCT_RELATED_PRODUCT_CATEGORY('48014','48014',(#350));
#347=APPLICATION_PROTOCOL_DEFINITION('international standard',
'automotive_design',2009,#348);
#348=APPLICATION_CONTEXT(
'Core Data for Automotive Mechanical Design Process');
#349=PRODUCT_CONTEXT('part definition',#348,'mechanical');
#350=PRODUCT('48014','48014',$,(#349));
#351=PRESENTATION_STYLE_ASSIGNMENT((#352));
#352=SURFACE_STYLE_USAGE(.BOTH.,#355);
#353=SURFACE_STYLE_RENDERING_WITH_PROPERTIES($,#359,(#354));
#354=SURFACE_STYLE_TRANSPARENT(0.);
#355=SURFACE_SIDE_STYLE('',(#356,#353));
#356=SURFACE_STYLE_FILL_AREA(#357);
#357=FILL_AREA_STYLE('',(#358));
#358=FILL_AREA_STYLE_COLOUR('',#359);
#359=COLOUR_RGB('',0.956862745098039,0.956862745098039,0.956862745098039);
ENDSEC;
END-ISO-10303-21;
