ISO-10303-21;
HEADER;
/* Generated by software containing ST-Developer
 * from STEP Tools, Inc. (www.steptools.com) 
 */

FILE_DESCRIPTION(
/* description */ (''),
/* implementation_level */ '2;1');

FILE_NAME(
/* name */ 
'C:\\Users\\O.Boryczka\\Desktop\\Korrigierte Zeichnungen\\Abschlusssto
pfen rund V2A\\IPT_Daten\\Klebestopfen\\48015.ipt.step',
/* time_stamp */ '2022-07-18T12:52:41+02:00',
/* author */ ('Abt. Technik'),
/* organization */ (''),
/* preprocessor_version */ 'ST-DEVELOPER v18.1',
/* originating_system */ 'Autodesk Inventor 2022',
/* authorisation */ '');

FILE_SCHEMA (('AUTOMOTIVE_DESIGN { 1 0 10303 214 3 1 1 }','FEATURE_BASED_PROCESS_PLANNING'));
ENDSEC;

DATA;
#10=MECHANICAL_DESIGN_GEOMETRIC_PRESENTATION_REPRESENTATION('',(#13),#369);
#11=SHAPE_REPRESENTATION_RELATIONSHIP('SRR','None',#376,#12);
#12=ADVANCED_BREP_SHAPE_REPRESENTATION('',(#14),#368);
#13=STYLED_ITEM('',(#385),#14);
#14=MANIFOLD_SOLID_BREP('Volumenk\X\F6rper1',#194);
#15=CYLINDRICAL_SURFACE('',#232,17.2);
#16=CYLINDRICAL_SURFACE('',#239,21.2);
#17=CYLINDRICAL_SURFACE('',#240,14.5);
#18=CYLINDRICAL_SURFACE('',#242,17.25);
#19=SPHERICAL_SURFACE('',#231,55.);
#20=SPHERICAL_SURFACE('',#238,58.);
#21=TOROIDAL_SURFACE('',#226,16.7,0.5);
#22=TOROIDAL_SURFACE('',#233,20.7,0.5);
#23=FACE_BOUND('',#56,.T.);
#24=FACE_BOUND('',#58,.T.);
#25=FACE_BOUND('',#68,.T.);
#26=CIRCLE('',#219,17.2);
#27=CIRCLE('',#220,17.2);
#28=CIRCLE('',#221,14.5);
#29=CIRCLE('',#223,21.2);
#30=CIRCLE('',#224,17.25);
#31=CIRCLE('',#225,17.2);
#32=CIRCLE('',#227,17.2);
#33=CIRCLE('',#228,0.5);
#34=CIRCLE('',#229,16.8532110091743);
#35=CIRCLE('',#230,17.2);
#36=CIRCLE('',#234,20.88);
#37=CIRCLE('',#235,0.5);
#38=CIRCLE('',#236,21.2);
#39=CIRCLE('',#237,21.2);
#40=CIRCLE('',#241,14.5);
#41=CIRCLE('',#243,17.25);
#42=FACE_OUTER_BOUND('',#54,.T.);
#43=FACE_OUTER_BOUND('',#55,.T.);
#44=FACE_OUTER_BOUND('',#57,.T.);
#45=FACE_OUTER_BOUND('',#59,.T.);
#46=FACE_OUTER_BOUND('',#60,.T.);
#47=FACE_OUTER_BOUND('',#61,.T.);
#48=FACE_OUTER_BOUND('',#62,.T.);
#49=FACE_OUTER_BOUND('',#63,.T.);
#50=FACE_OUTER_BOUND('',#64,.T.);
#51=FACE_OUTER_BOUND('',#65,.T.);
#52=FACE_OUTER_BOUND('',#66,.T.);
#53=FACE_OUTER_BOUND('',#67,.T.);
#54=EDGE_LOOP('',(#128,#129,#130,#131,#132,#133));
#55=EDGE_LOOP('',(#134,#135,#136));
#56=EDGE_LOOP('',(#137));
#57=EDGE_LOOP('',(#138));
#58=EDGE_LOOP('',(#139,#140,#141,#142));
#59=EDGE_LOOP('',(#143,#144,#145,#146,#147));
#60=EDGE_LOOP('',(#148));
#61=EDGE_LOOP('',(#149,#150,#151,#152,#153,#154,#155));
#62=EDGE_LOOP('',(#156,#157,#158,#159,#160));
#63=EDGE_LOOP('',(#161));
#64=EDGE_LOOP('',(#162,#163,#164,#165,#166));
#65=EDGE_LOOP('',(#167,#168,#169,#170));
#66=EDGE_LOOP('',(#171,#172,#173,#174));
#67=EDGE_LOOP('',(#175,#176));
#68=EDGE_LOOP('',(#177));
#69=LINE('',#316,#78);
#70=LINE('',#318,#79);
#71=LINE('',#320,#80);
#72=LINE('',#322,#81);
#73=LINE('',#324,#82);
#74=LINE('',#325,#83);
#75=LINE('',#347,#84);
#76=LINE('',#358,#85);
#77=LINE('',#361,#86);
#78=VECTOR('',#249,10.);
#79=VECTOR('',#250,10.);
#80=VECTOR('',#251,10.);
#81=VECTOR('',#252,10.);
#82=VECTOR('',#253,10.);
#83=VECTOR('',#254,10.);
#84=VECTOR('',#285,17.2);
#85=VECTOR('',#300,21.2);
#86=VECTOR('',#303,14.5);
#87=VERTEX_POINT('',#314);
#88=VERTEX_POINT('',#315);
#89=VERTEX_POINT('',#317);
#90=VERTEX_POINT('',#319);
#91=VERTEX_POINT('',#321);
#92=VERTEX_POINT('',#323);
#93=VERTEX_POINT('',#327);
#94=VERTEX_POINT('',#330);
#95=VERTEX_POINT('',#333);
#96=VERTEX_POINT('',#338);
#97=VERTEX_POINT('',#339);
#98=VERTEX_POINT('',#341);
#99=VERTEX_POINT('',#349);
#100=VERTEX_POINT('',#351);
#101=VERTEX_POINT('',#353);
#102=VERTEX_POINT('',#360);
#103=EDGE_CURVE('',#87,#88,#69,.T.);
#104=EDGE_CURVE('',#89,#87,#70,.T.);
#105=EDGE_CURVE('',#90,#89,#71,.T.);
#106=EDGE_CURVE('',#91,#90,#72,.T.);
#107=EDGE_CURVE('',#92,#91,#73,.T.);
#108=EDGE_CURVE('',#88,#92,#74,.T.);
#109=EDGE_CURVE('',#91,#93,#26,.T.);
#110=EDGE_CURVE('',#93,#92,#27,.T.);
#111=EDGE_CURVE('',#94,#94,#28,.T.);
#112=EDGE_CURVE('',#95,#95,#29,.T.);
#113=EDGE_CURVE('',#90,#88,#30,.T.);
#114=EDGE_CURVE('',#92,#91,#31,.T.);
#115=EDGE_CURVE('',#96,#97,#32,.T.);
#116=EDGE_CURVE('',#97,#98,#33,.T.);
#117=EDGE_CURVE('',#98,#98,#34,.T.);
#118=EDGE_CURVE('',#97,#96,#35,.T.);
#119=EDGE_CURVE('',#96,#93,#75,.T.);
#120=EDGE_CURVE('',#99,#99,#36,.T.);
#121=EDGE_CURVE('',#99,#100,#37,.T.);
#122=EDGE_CURVE('',#100,#101,#38,.T.);
#123=EDGE_CURVE('',#101,#100,#39,.T.);
#124=EDGE_CURVE('',#101,#95,#76,.T.);
#125=EDGE_CURVE('',#94,#102,#77,.T.);
#126=EDGE_CURVE('',#102,#102,#40,.T.);
#127=EDGE_CURVE('',#89,#87,#41,.T.);
#128=ORIENTED_EDGE('',*,*,#103,.F.);
#129=ORIENTED_EDGE('',*,*,#104,.F.);
#130=ORIENTED_EDGE('',*,*,#105,.F.);
#131=ORIENTED_EDGE('',*,*,#106,.F.);
#132=ORIENTED_EDGE('',*,*,#107,.F.);
#133=ORIENTED_EDGE('',*,*,#108,.F.);
#134=ORIENTED_EDGE('',*,*,#107,.T.);
#135=ORIENTED_EDGE('',*,*,#109,.T.);
#136=ORIENTED_EDGE('',*,*,#110,.T.);
#137=ORIENTED_EDGE('',*,*,#111,.T.);
#138=ORIENTED_EDGE('',*,*,#112,.F.);
#139=ORIENTED_EDGE('',*,*,#113,.T.);
#140=ORIENTED_EDGE('',*,*,#108,.T.);
#141=ORIENTED_EDGE('',*,*,#114,.T.);
#142=ORIENTED_EDGE('',*,*,#106,.T.);
#143=ORIENTED_EDGE('',*,*,#115,.T.);
#144=ORIENTED_EDGE('',*,*,#116,.T.);
#145=ORIENTED_EDGE('',*,*,#117,.T.);
#146=ORIENTED_EDGE('',*,*,#116,.F.);
#147=ORIENTED_EDGE('',*,*,#118,.T.);
#148=ORIENTED_EDGE('',*,*,#117,.F.);
#149=ORIENTED_EDGE('',*,*,#115,.F.);
#150=ORIENTED_EDGE('',*,*,#119,.T.);
#151=ORIENTED_EDGE('',*,*,#109,.F.);
#152=ORIENTED_EDGE('',*,*,#114,.F.);
#153=ORIENTED_EDGE('',*,*,#110,.F.);
#154=ORIENTED_EDGE('',*,*,#119,.F.);
#155=ORIENTED_EDGE('',*,*,#118,.F.);
#156=ORIENTED_EDGE('',*,*,#120,.T.);
#157=ORIENTED_EDGE('',*,*,#121,.T.);
#158=ORIENTED_EDGE('',*,*,#122,.T.);
#159=ORIENTED_EDGE('',*,*,#123,.T.);
#160=ORIENTED_EDGE('',*,*,#121,.F.);
#161=ORIENTED_EDGE('',*,*,#120,.F.);
#162=ORIENTED_EDGE('',*,*,#123,.F.);
#163=ORIENTED_EDGE('',*,*,#124,.T.);
#164=ORIENTED_EDGE('',*,*,#112,.T.);
#165=ORIENTED_EDGE('',*,*,#124,.F.);
#166=ORIENTED_EDGE('',*,*,#122,.F.);
#167=ORIENTED_EDGE('',*,*,#111,.F.);
#168=ORIENTED_EDGE('',*,*,#125,.T.);
#169=ORIENTED_EDGE('',*,*,#126,.T.);
#170=ORIENTED_EDGE('',*,*,#125,.F.);
#171=ORIENTED_EDGE('',*,*,#103,.T.);
#172=ORIENTED_EDGE('',*,*,#113,.F.);
#173=ORIENTED_EDGE('',*,*,#105,.T.);
#174=ORIENTED_EDGE('',*,*,#127,.T.);
#175=ORIENTED_EDGE('',*,*,#104,.T.);
#176=ORIENTED_EDGE('',*,*,#127,.F.);
#177=ORIENTED_EDGE('',*,*,#126,.F.);
#178=PLANE('',#217);
#179=PLANE('',#218);
#180=PLANE('',#222);
#181=PLANE('',#244);
#182=ADVANCED_FACE('',(#42),#178,.F.);
#183=ADVANCED_FACE('',(#43,#23),#179,.T.);
#184=ADVANCED_FACE('',(#44,#24),#180,.F.);
#185=ADVANCED_FACE('',(#45),#21,.F.);
#186=ADVANCED_FACE('',(#46),#19,.F.);
#187=ADVANCED_FACE('',(#47),#15,.F.);
#188=ADVANCED_FACE('',(#48),#22,.T.);
#189=ADVANCED_FACE('',(#49),#20,.T.);
#190=ADVANCED_FACE('',(#50),#16,.T.);
#191=ADVANCED_FACE('',(#51),#17,.F.);
#192=ADVANCED_FACE('',(#52),#18,.T.);
#193=ADVANCED_FACE('',(#53,#25),#181,.F.);
#194=CLOSED_SHELL('',(#182,#183,#184,#185,#186,#187,#188,#189,#190,#191,
#192,#193));
#195=DERIVED_UNIT_ELEMENT(#198,1.);
#196=DERIVED_UNIT_ELEMENT(#371,-3.);
#197=DIMENSIONAL_EXPONENTS(1.,0.,0.,0.,0.,0.,0.);
#198=(
CONVERSION_BASED_UNIT('gram',#200)
MASS_UNIT()
NAMED_UNIT(#197)
);
#199=(
MASS_UNIT()
NAMED_UNIT(*)
SI_UNIT(.KILO.,.GRAM.)
);
#200=MASS_MEASURE_WITH_UNIT(MASS_MEASURE(0.001),#199);
#201=DERIVED_UNIT((#195,#196));
#202=MEASURE_REPRESENTATION_ITEM('density measure',
POSITIVE_RATIO_MEASURE(8.),#201);
#203=PROPERTY_DEFINITION_REPRESENTATION(#208,#205);
#204=PROPERTY_DEFINITION_REPRESENTATION(#209,#206);
#205=REPRESENTATION('material name',(#207),#368);
#206=REPRESENTATION('density',(#202),#368);
#207=DESCRIPTIVE_REPRESENTATION_ITEM('Edelstahl AISI 304',
'Edelstahl AISI 304');
#208=PROPERTY_DEFINITION('material property','material name',#378);
#209=PROPERTY_DEFINITION('material property','density of part',#378);
#210=DATE_TIME_ROLE('creation_date');
#211=APPLIED_DATE_AND_TIME_ASSIGNMENT(#212,#210,(#378));
#212=DATE_AND_TIME(#213,#214);
#213=CALENDAR_DATE(2021,11,5);
#214=LOCAL_TIME(0,0,0.,#215);
#215=COORDINATED_UNIVERSAL_TIME_OFFSET(0,0,.BEHIND.);
#216=AXIS2_PLACEMENT_3D('placement',#312,#245,#246);
#217=AXIS2_PLACEMENT_3D('',#313,#247,#248);
#218=AXIS2_PLACEMENT_3D('',#326,#255,#256);
#219=AXIS2_PLACEMENT_3D('',#328,#257,#258);
#220=AXIS2_PLACEMENT_3D('',#329,#259,#260);
#221=AXIS2_PLACEMENT_3D('',#331,#261,#262);
#222=AXIS2_PLACEMENT_3D('',#332,#263,#264);
#223=AXIS2_PLACEMENT_3D('',#334,#265,#266);
#224=AXIS2_PLACEMENT_3D('',#335,#267,#268);
#225=AXIS2_PLACEMENT_3D('',#336,#269,#270);
#226=AXIS2_PLACEMENT_3D('',#337,#271,#272);
#227=AXIS2_PLACEMENT_3D('',#340,#273,#274);
#228=AXIS2_PLACEMENT_3D('',#342,#275,#276);
#229=AXIS2_PLACEMENT_3D('',#343,#277,#278);
#230=AXIS2_PLACEMENT_3D('',#344,#279,#280);
#231=AXIS2_PLACEMENT_3D('',#345,#281,#282);
#232=AXIS2_PLACEMENT_3D('',#346,#283,#284);
#233=AXIS2_PLACEMENT_3D('',#348,#286,#287);
#234=AXIS2_PLACEMENT_3D('',#350,#288,#289);
#235=AXIS2_PLACEMENT_3D('',#352,#290,#291);
#236=AXIS2_PLACEMENT_3D('',#354,#292,#293);
#237=AXIS2_PLACEMENT_3D('',#355,#294,#295);
#238=AXIS2_PLACEMENT_3D('',#356,#296,#297);
#239=AXIS2_PLACEMENT_3D('',#357,#298,#299);
#240=AXIS2_PLACEMENT_3D('',#359,#301,#302);
#241=AXIS2_PLACEMENT_3D('',#362,#304,#305);
#242=AXIS2_PLACEMENT_3D('',#363,#306,#307);
#243=AXIS2_PLACEMENT_3D('',#364,#308,#309);
#244=AXIS2_PLACEMENT_3D('',#365,#310,#311);
#245=DIRECTION('axis',(0.,0.,1.));
#246=DIRECTION('refdir',(1.,0.,0.));
#247=DIRECTION('center_axis',(0.,0.,1.));
#248=DIRECTION('ref_axis',(1.,0.,0.));
#249=DIRECTION('',(0.,1.,0.));
#250=DIRECTION('',(1.,0.,0.));
#251=DIRECTION('',(0.,-1.,0.));
#252=DIRECTION('',(-1.,-4.44089209850063E-16,0.));
#253=DIRECTION('',(-1.,0.,0.));
#254=DIRECTION('',(-1.,-4.44089209850063E-16,0.));
#255=DIRECTION('center_axis',(0.,1.,0.));
#256=DIRECTION('ref_axis',(0.,0.,1.));
#257=DIRECTION('center_axis',(0.,1.,0.));
#258=DIRECTION('ref_axis',(-1.,0.,0.));
#259=DIRECTION('center_axis',(0.,1.,0.));
#260=DIRECTION('ref_axis',(-1.,0.,0.));
#261=DIRECTION('center_axis',(0.,-1.,0.));
#262=DIRECTION('ref_axis',(1.,0.,0.));
#263=DIRECTION('center_axis',(0.,1.,0.));
#264=DIRECTION('ref_axis',(0.,0.,1.));
#265=DIRECTION('center_axis',(0.,1.,0.));
#266=DIRECTION('ref_axis',(1.,0.,0.));
#267=DIRECTION('center_axis',(0.,1.,0.));
#268=DIRECTION('ref_axis',(-1.,0.,0.));
#269=DIRECTION('center_axis',(0.,1.,0.));
#270=DIRECTION('ref_axis',(-1.,0.,0.));
#271=DIRECTION('center_axis',(0.,-1.,0.));
#272=DIRECTION('ref_axis',(0.,0.,-1.));
#273=DIRECTION('center_axis',(0.,-1.,0.));
#274=DIRECTION('ref_axis',(-1.,0.,0.));
#275=DIRECTION('center_axis',(-1.,0.,-1.22464679914735E-16));
#276=DIRECTION('ref_axis',(-1.22464679914735E-16,0.,1.));
#277=DIRECTION('center_axis',(0.,1.,0.));
#278=DIRECTION('ref_axis',(-1.,0.,0.));
#279=DIRECTION('center_axis',(0.,-1.,0.));
#280=DIRECTION('ref_axis',(-1.,0.,0.));
#281=DIRECTION('center_axis',(6.12323399573677E-17,0.,1.));
#282=DIRECTION('ref_axis',(1.,0.,0.));
#283=DIRECTION('center_axis',(0.,1.,0.));
#284=DIRECTION('ref_axis',(-1.,0.,0.));
#285=DIRECTION('',(0.,-1.,0.));
#286=DIRECTION('center_axis',(0.,1.,0.));
#287=DIRECTION('ref_axis',(0.,0.,1.));
#288=DIRECTION('center_axis',(0.,-1.,0.));
#289=DIRECTION('ref_axis',(1.,0.,0.));
#290=DIRECTION('center_axis',(-1.,0.,1.22464679914735E-16));
#291=DIRECTION('ref_axis',(-1.22464679914735E-16,0.,-1.));
#292=DIRECTION('center_axis',(0.,1.,0.));
#293=DIRECTION('ref_axis',(1.,0.,0.));
#294=DIRECTION('center_axis',(0.,1.,0.));
#295=DIRECTION('ref_axis',(1.,0.,0.));
#296=DIRECTION('center_axis',(6.12323399573677E-17,0.,1.));
#297=DIRECTION('ref_axis',(1.,0.,0.));
#298=DIRECTION('center_axis',(0.,1.,0.));
#299=DIRECTION('ref_axis',(1.,0.,0.));
#300=DIRECTION('',(0.,-1.,0.));
#301=DIRECTION('center_axis',(0.,1.,0.));
#302=DIRECTION('ref_axis',(1.,0.,0.));
#303=DIRECTION('',(0.,-1.,0.));
#304=DIRECTION('center_axis',(0.,-1.,0.));
#305=DIRECTION('ref_axis',(1.,0.,0.));
#306=DIRECTION('center_axis',(0.,1.,0.));
#307=DIRECTION('ref_axis',(1.83697019872103E-16,0.,1.));
#308=DIRECTION('center_axis',(0.,1.,0.));
#309=DIRECTION('ref_axis',(-1.,0.,0.));
#310=DIRECTION('center_axis',(0.,1.,0.));
#311=DIRECTION('ref_axis',(0.,0.,1.));
#312=CARTESIAN_POINT('',(0.,0.,0.));
#313=CARTESIAN_POINT('Origin',(-2.77555756156289E-15,7.5,-16.75));
#314=CARTESIAN_POINT('',(4.12310562561767,0.,-16.75));
#315=CARTESIAN_POINT('',(4.12310562561767,15.,-16.75));
#316=CARTESIAN_POINT('',(4.12310562561767,0.,-16.75));
#317=CARTESIAN_POINT('',(-4.12310562561767,0.,-16.75));
#318=CARTESIAN_POINT('',(-1.38777878078145E-15,0.,-16.75));
#319=CARTESIAN_POINT('',(-4.12310562561767,15.,-16.75));
#320=CARTESIAN_POINT('',(-4.12310562561767,0.,-16.75));
#321=CARTESIAN_POINT('',(-3.90864426623861,15.,-16.75));
#322=CARTESIAN_POINT('',(4.99999999999999,15.,-16.75));
#323=CARTESIAN_POINT('',(3.90864426623861,15.,-16.75));
#324=CARTESIAN_POINT('',(-1.38777878078145E-15,15.,-16.75));
#325=CARTESIAN_POINT('',(4.99999999999999,15.,-16.75));
#326=CARTESIAN_POINT('Origin',(0.,15.,0.));
#327=CARTESIAN_POINT('',(17.2,15.,-2.10639249453345E-15));
#328=CARTESIAN_POINT('Origin',(0.,15.,0.));
#329=CARTESIAN_POINT('Origin',(0.,15.,0.));
#330=CARTESIAN_POINT('',(-14.5,15.,1.77573785876366E-15));
#331=CARTESIAN_POINT('Origin',(0.,15.,0.));
#332=CARTESIAN_POINT('Origin',(0.,15.,0.));
#333=CARTESIAN_POINT('',(-21.2,15.,2.59625121419239E-15));
#334=CARTESIAN_POINT('Origin',(0.,15.,0.));
#335=CARTESIAN_POINT('Origin',(0.,15.,0.));
#336=CARTESIAN_POINT('Origin',(0.,15.,0.));
#337=CARTESIAN_POINT('Origin',(0.,16.6369562484249,0.));
#338=CARTESIAN_POINT('',(17.2,16.6369562484249,2.10639249453345E-15));
#339=CARTESIAN_POINT('',(-2.10639249453345E-15,16.6369562484249,17.2));
#340=CARTESIAN_POINT('Origin',(0.,16.6369562484249,0.));
#341=CARTESIAN_POINT('',(-2.06392309177403E-15,17.1129041307269,16.8532110091743));
#342=CARTESIAN_POINT('Origin',(-2.04516015457608E-15,16.6369562484249,16.7));
#343=CARTESIAN_POINT('Origin',(0.,17.1129041307269,0.));
#344=CARTESIAN_POINT('Origin',(0.,16.6369562484249,0.));
#345=CARTESIAN_POINT('Origin',(0.,-35.2413629224966,0.));
#346=CARTESIAN_POINT('Origin',(0.,15.,0.));
#347=CARTESIAN_POINT('',(17.2,15.,-2.10639249453345E-15));
#348=CARTESIAN_POINT('Origin',(0.,16.6580924124072,0.));
#349=CARTESIAN_POINT('',(-2.55706251661967E-15,17.1245685639948,-20.88));
#350=CARTESIAN_POINT('Origin',(0.,17.1245685639948,0.));
#351=CARTESIAN_POINT('',(-2.59625121419239E-15,16.6580924124072,-21.2));
#352=CARTESIAN_POINT('Origin',(-2.53501887423502E-15,16.6580924124072,-20.7));
#353=CARTESIAN_POINT('',(-21.2,16.6580924124072,2.59625121419239E-15));
#354=CARTESIAN_POINT('Origin',(0.,16.6580924124072,0.));
#355=CARTESIAN_POINT('Origin',(0.,16.6580924124072,0.));
#356=CARTESIAN_POINT('Origin',(0.,-36.9866650201696,0.));
#357=CARTESIAN_POINT('Origin',(0.,15.,0.));
#358=CARTESIAN_POINT('',(-21.2,15.,2.59625121419239E-15));
#359=CARTESIAN_POINT('Origin',(0.,0.,0.));
#360=CARTESIAN_POINT('',(-14.5,0.,1.77573785876366E-15));
#361=CARTESIAN_POINT('',(-14.5,0.,1.77573785876366E-15));
#362=CARTESIAN_POINT('Origin',(0.,0.,0.));
#363=CARTESIAN_POINT('Origin',(0.,0.,0.));
#364=CARTESIAN_POINT('Origin',(0.,0.,0.));
#365=CARTESIAN_POINT('Origin',(0.,0.,0.));
#366=UNCERTAINTY_MEASURE_WITH_UNIT(LENGTH_MEASURE(0.01),#370,
'DISTANCE_ACCURACY_VALUE',
'Maximum model space distance between geometric entities at asserted c
onnectivities');
#367=UNCERTAINTY_MEASURE_WITH_UNIT(LENGTH_MEASURE(0.01),#370,
'DISTANCE_ACCURACY_VALUE',
'Maximum model space distance between geometric entities at asserted c
onnectivities');
#368=(
GEOMETRIC_REPRESENTATION_CONTEXT(3)
GLOBAL_UNCERTAINTY_ASSIGNED_CONTEXT((#366))
GLOBAL_UNIT_ASSIGNED_CONTEXT((#370,#372,#373))
REPRESENTATION_CONTEXT('','3D')
);
#369=(
GEOMETRIC_REPRESENTATION_CONTEXT(3)
GLOBAL_UNCERTAINTY_ASSIGNED_CONTEXT((#367))
GLOBAL_UNIT_ASSIGNED_CONTEXT((#370,#372,#373))
REPRESENTATION_CONTEXT('','3D')
);
#370=(
LENGTH_UNIT()
NAMED_UNIT(*)
SI_UNIT(.MILLI.,.METRE.)
);
#371=(
LENGTH_UNIT()
NAMED_UNIT(*)
SI_UNIT(.CENTI.,.METRE.)
);
#372=(
NAMED_UNIT(*)
PLANE_ANGLE_UNIT()
SI_UNIT($,.RADIAN.)
);
#373=(
NAMED_UNIT(*)
SI_UNIT($,.STERADIAN.)
SOLID_ANGLE_UNIT()
);
#374=SHAPE_DEFINITION_REPRESENTATION(#375,#376);
#375=PRODUCT_DEFINITION_SHAPE('',$,#378);
#376=SHAPE_REPRESENTATION('',(#216),#368);
#377=PRODUCT_DEFINITION_CONTEXT('part definition',#382,'design');
#378=PRODUCT_DEFINITION('48015','48015',#379,#377);
#379=PRODUCT_DEFINITION_FORMATION('',$,#384);
#380=PRODUCT_RELATED_PRODUCT_CATEGORY('48015','48015',(#384));
#381=APPLICATION_PROTOCOL_DEFINITION('international standard',
'automotive_design',2009,#382);
#382=APPLICATION_CONTEXT(
'Core Data for Automotive Mechanical Design Process');
#383=PRODUCT_CONTEXT('part definition',#382,'mechanical');
#384=PRODUCT('48015','48015',$,(#383));
#385=PRESENTATION_STYLE_ASSIGNMENT((#386));
#386=SURFACE_STYLE_USAGE(.BOTH.,#389);
#387=SURFACE_STYLE_RENDERING_WITH_PROPERTIES($,#393,(#388));
#388=SURFACE_STYLE_TRANSPARENT(0.);
#389=SURFACE_SIDE_STYLE('',(#390,#387));
#390=SURFACE_STYLE_FILL_AREA(#391);
#391=FILL_AREA_STYLE('',(#392));
#392=FILL_AREA_STYLE_COLOUR('',#393);
#393=COLOUR_RGB('',0.956862745098039,0.956862745098039,0.956862745098039);
ENDSEC;
END-ISO-10303-21;
