ISO-10303-21;
HEADER;
/* Generated by software containing ST-Developer
 * from STEP Tools, Inc. (www.steptools.com) 
 */

FILE_DESCRIPTION(
/* description */ (''),
/* implementation_level */ '2;1');

FILE_NAME(
/* name */ 
'C:\\Users\\O.Boryczka\\Desktop\\Korrigierte Zeichnungen\\Abschlusssto
pfen rund V2A\\IPT_Daten\\Klebestopfen\\48021.ipt.step',
/* time_stamp */ '2022-07-18T12:52:44+02:00',
/* author */ ('Abt. Technik'),
/* organization */ (''),
/* preprocessor_version */ 'ST-DEVELOPER v18.1',
/* originating_system */ 'Autodesk Inventor 2022',
/* authorisation */ '');

FILE_SCHEMA (('AUTOMOTIVE_DESIGN { 1 0 10303 214 3 1 1 }'));
ENDSEC;

DATA;
#10=MECHANICAL_DESIGN_GEOMETRIC_PRESENTATION_REPRESENTATION('',(#13),#279);
#11=SHAPE_REPRESENTATION_RELATIONSHIP('SRR','None',#286,#12);
#12=ADVANCED_BREP_SHAPE_REPRESENTATION('',(#14),#278);
#13=STYLED_ITEM('',(#295),#14);
#14=MANIFOLD_SOLID_BREP('Volumenk\X\F6rper1',#144);
#15=SPHERICAL_SURFACE('',#173,14.85);
#16=SPHERICAL_SURFACE('',#177,15.85);
#17=SPHERICAL_SURFACE('',#186,16.85);
#18=FACE_BOUND('',#48,.T.);
#19=FACE_BOUND('',#52,.T.);
#20=FACE_BOUND('',#54,.T.);
#21=FACE_BOUND('',#57,.T.);
#22=CIRCLE('',#169,14.8);
#23=CIRCLE('',#170,14.8);
#24=CIRCLE('',#172,12.8);
#25=CIRCLE('',#174,14.7147035308225);
#26=CIRCLE('',#175,14.85);
#27=CIRCLE('',#176,14.8162917087914);
#28=CIRCLE('',#178,15.818422803807);
#29=CIRCLE('',#179,15.85);
#30=CIRCLE('',#182,12.8);
#31=CIRCLE('',#185,16.85);
#32=CIRCLE('',#187,16.85);
#33=CYLINDRICAL_SURFACE('',#168,14.8);
#34=CYLINDRICAL_SURFACE('',#183,12.8);
#35=FACE_OUTER_BOUND('',#45,.T.);
#36=FACE_OUTER_BOUND('',#46,.T.);
#37=FACE_OUTER_BOUND('',#47,.T.);
#38=FACE_OUTER_BOUND('',#49,.T.);
#39=FACE_OUTER_BOUND('',#50,.T.);
#40=FACE_OUTER_BOUND('',#51,.T.);
#41=FACE_OUTER_BOUND('',#53,.T.);
#42=FACE_OUTER_BOUND('',#55,.T.);
#43=FACE_OUTER_BOUND('',#56,.T.);
#44=FACE_OUTER_BOUND('',#58,.T.);
#45=EDGE_LOOP('',(#97,#98,#99,#100));
#46=EDGE_LOOP('',(#101,#102,#103,#104));
#47=EDGE_LOOP('',(#105,#106));
#48=EDGE_LOOP('',(#107));
#49=EDGE_LOOP('',(#108,#109,#110,#111));
#50=EDGE_LOOP('',(#112,#113,#114));
#51=EDGE_LOOP('',(#115));
#52=EDGE_LOOP('',(#116));
#53=EDGE_LOOP('',(#117));
#54=EDGE_LOOP('',(#118));
#55=EDGE_LOOP('',(#119,#120,#121,#122));
#56=EDGE_LOOP('',(#123));
#57=EDGE_LOOP('',(#124,#125));
#58=EDGE_LOOP('',(#126,#127,#128));
#59=LINE('',#241,#64);
#60=LINE('',#243,#65);
#61=LINE('',#245,#66);
#62=LINE('',#246,#67);
#63=LINE('',#269,#68);
#64=VECTOR('',#192,10.);
#65=VECTOR('',#193,10.);
#66=VECTOR('',#194,10.);
#67=VECTOR('',#195,10.);
#68=VECTOR('',#228,14.8);
#69=VERTEX_POINT('',#239);
#70=VERTEX_POINT('',#240);
#71=VERTEX_POINT('',#242);
#72=VERTEX_POINT('',#244);
#73=VERTEX_POINT('',#251);
#74=VERTEX_POINT('',#254);
#75=VERTEX_POINT('',#256);
#76=VERTEX_POINT('',#260);
#77=VERTEX_POINT('',#262);
#78=VERTEX_POINT('',#266);
#79=VERTEX_POINT('',#271);
#80=VERTEX_POINT('',#274);
#81=EDGE_CURVE('',#69,#70,#59,.T.);
#82=EDGE_CURVE('',#71,#69,#60,.T.);
#83=EDGE_CURVE('',#72,#71,#61,.T.);
#84=EDGE_CURVE('',#70,#72,#62,.T.);
#85=EDGE_CURVE('',#70,#72,#22,.T.);
#86=EDGE_CURVE('',#69,#71,#23,.T.);
#87=EDGE_CURVE('',#73,#73,#24,.T.);
#88=EDGE_CURVE('',#74,#74,#25,.T.);
#89=EDGE_CURVE('',#74,#75,#26,.T.);
#90=EDGE_CURVE('',#75,#75,#27,.T.);
#91=EDGE_CURVE('',#76,#76,#28,.T.);
#92=EDGE_CURVE('',#76,#77,#29,.T.);
#93=EDGE_CURVE('',#78,#78,#30,.F.);
#94=EDGE_CURVE('',#73,#78,#63,.T.);
#95=EDGE_CURVE('',#79,#79,#31,.T.);
#96=EDGE_CURVE('',#80,#79,#32,.T.);
#97=ORIENTED_EDGE('',*,*,#81,.F.);
#98=ORIENTED_EDGE('',*,*,#82,.F.);
#99=ORIENTED_EDGE('',*,*,#83,.F.);
#100=ORIENTED_EDGE('',*,*,#84,.F.);
#101=ORIENTED_EDGE('',*,*,#81,.T.);
#102=ORIENTED_EDGE('',*,*,#85,.T.);
#103=ORIENTED_EDGE('',*,*,#83,.T.);
#104=ORIENTED_EDGE('',*,*,#86,.F.);
#105=ORIENTED_EDGE('',*,*,#84,.T.);
#106=ORIENTED_EDGE('',*,*,#85,.F.);
#107=ORIENTED_EDGE('',*,*,#87,.T.);
#108=ORIENTED_EDGE('',*,*,#88,.T.);
#109=ORIENTED_EDGE('',*,*,#89,.T.);
#110=ORIENTED_EDGE('',*,*,#90,.T.);
#111=ORIENTED_EDGE('',*,*,#89,.F.);
#112=ORIENTED_EDGE('',*,*,#91,.T.);
#113=ORIENTED_EDGE('',*,*,#92,.T.);
#114=ORIENTED_EDGE('',*,*,#92,.F.);
#115=ORIENTED_EDGE('',*,*,#91,.F.);
#116=ORIENTED_EDGE('',*,*,#90,.F.);
#117=ORIENTED_EDGE('',*,*,#88,.F.);
#118=ORIENTED_EDGE('',*,*,#93,.F.);
#119=ORIENTED_EDGE('',*,*,#87,.F.);
#120=ORIENTED_EDGE('',*,*,#94,.T.);
#121=ORIENTED_EDGE('',*,*,#93,.T.);
#122=ORIENTED_EDGE('',*,*,#94,.F.);
#123=ORIENTED_EDGE('',*,*,#95,.T.);
#124=ORIENTED_EDGE('',*,*,#86,.T.);
#125=ORIENTED_EDGE('',*,*,#82,.T.);
#126=ORIENTED_EDGE('',*,*,#95,.F.);
#127=ORIENTED_EDGE('',*,*,#96,.F.);
#128=ORIENTED_EDGE('',*,*,#96,.T.);
#129=PLANE('',#167);
#130=PLANE('',#171);
#131=PLANE('',#180);
#132=PLANE('',#181);
#133=PLANE('',#184);
#134=ADVANCED_FACE('',(#35),#129,.F.);
#135=ADVANCED_FACE('',(#36),#33,.T.);
#136=ADVANCED_FACE('',(#37,#18),#130,.F.);
#137=ADVANCED_FACE('',(#38),#15,.T.);
#138=ADVANCED_FACE('',(#39),#16,.F.);
#139=ADVANCED_FACE('',(#40,#19),#131,.F.);
#140=ADVANCED_FACE('',(#41,#20),#132,.F.);
#141=ADVANCED_FACE('',(#42),#34,.F.);
#142=ADVANCED_FACE('',(#43,#21),#133,.T.);
#143=ADVANCED_FACE('',(#44),#17,.T.);
#144=CLOSED_SHELL('',(#134,#135,#136,#137,#138,#139,#140,#141,#142,#143));
#145=DERIVED_UNIT_ELEMENT(#148,1.);
#146=DERIVED_UNIT_ELEMENT(#281,-3.);
#147=DIMENSIONAL_EXPONENTS(1.,0.,0.,0.,0.,0.,0.);
#148=(
CONVERSION_BASED_UNIT('gram',#150)
MASS_UNIT()
NAMED_UNIT(#147)
);
#149=(
MASS_UNIT()
NAMED_UNIT(*)
SI_UNIT(.KILO.,.GRAM.)
);
#150=MASS_MEASURE_WITH_UNIT(MASS_MEASURE(0.001),#149);
#151=DERIVED_UNIT((#145,#146));
#152=MEASURE_REPRESENTATION_ITEM('density measure',
POSITIVE_RATIO_MEASURE(8.),#151);
#153=PROPERTY_DEFINITION_REPRESENTATION(#158,#155);
#154=PROPERTY_DEFINITION_REPRESENTATION(#159,#156);
#155=REPRESENTATION('material name',(#157),#278);
#156=REPRESENTATION('density',(#152),#278);
#157=DESCRIPTIVE_REPRESENTATION_ITEM('Edelstahl AISI 304',
'Edelstahl AISI 304');
#158=PROPERTY_DEFINITION('material property','material name',#288);
#159=PROPERTY_DEFINITION('material property','density of part',#288);
#160=DATE_TIME_ROLE('creation_date');
#161=APPLIED_DATE_AND_TIME_ASSIGNMENT(#162,#160,(#288));
#162=DATE_AND_TIME(#163,#164);
#163=CALENDAR_DATE(2021,10,5);
#164=LOCAL_TIME(0,0,0.,#165);
#165=COORDINATED_UNIVERSAL_TIME_OFFSET(0,0,.BEHIND.);
#166=AXIS2_PLACEMENT_3D('placement',#237,#188,#189);
#167=AXIS2_PLACEMENT_3D('',#238,#190,#191);
#168=AXIS2_PLACEMENT_3D('',#247,#196,#197);
#169=AXIS2_PLACEMENT_3D('',#248,#198,#199);
#170=AXIS2_PLACEMENT_3D('',#249,#200,#201);
#171=AXIS2_PLACEMENT_3D('',#250,#202,#203);
#172=AXIS2_PLACEMENT_3D('',#252,#204,#205);
#173=AXIS2_PLACEMENT_3D('',#253,#206,#207);
#174=AXIS2_PLACEMENT_3D('',#255,#208,#209);
#175=AXIS2_PLACEMENT_3D('',#257,#210,#211);
#176=AXIS2_PLACEMENT_3D('',#258,#212,#213);
#177=AXIS2_PLACEMENT_3D('',#259,#214,#215);
#178=AXIS2_PLACEMENT_3D('',#261,#216,#217);
#179=AXIS2_PLACEMENT_3D('',#263,#218,#219);
#180=AXIS2_PLACEMENT_3D('',#264,#220,#221);
#181=AXIS2_PLACEMENT_3D('',#265,#222,#223);
#182=AXIS2_PLACEMENT_3D('',#267,#224,#225);
#183=AXIS2_PLACEMENT_3D('',#268,#226,#227);
#184=AXIS2_PLACEMENT_3D('',#270,#229,#230);
#185=AXIS2_PLACEMENT_3D('',#272,#231,#232);
#186=AXIS2_PLACEMENT_3D('',#273,#233,#234);
#187=AXIS2_PLACEMENT_3D('',#275,#235,#236);
#188=DIRECTION('axis',(0.,0.,1.));
#189=DIRECTION('refdir',(1.,0.,0.));
#190=DIRECTION('center_axis',(1.,0.,0.));
#191=DIRECTION('ref_axis',(0.,0.,-1.));
#192=DIRECTION('',(0.,-1.,0.));
#193=DIRECTION('',(0.,0.,1.));
#194=DIRECTION('',(0.,1.,0.));
#195=DIRECTION('',(0.,0.,-1.));
#196=DIRECTION('center_axis',(0.,1.,0.));
#197=DIRECTION('ref_axis',(1.,0.,1.22464679914735E-16));
#198=DIRECTION('center_axis',(0.,1.,0.));
#199=DIRECTION('ref_axis',(-1.,0.,0.));
#200=DIRECTION('center_axis',(0.,1.,0.));
#201=DIRECTION('ref_axis',(-1.,0.,0.));
#202=DIRECTION('center_axis',(0.,1.,0.));
#203=DIRECTION('ref_axis',(0.,0.,1.));
#204=DIRECTION('center_axis',(0.,1.,0.));
#205=DIRECTION('ref_axis',(-1.,0.,0.));
#206=DIRECTION('center_axis',(0.,1.,-6.12323399573677E-17));
#207=DIRECTION('ref_axis',(0.,0.,-1.));
#208=DIRECTION('center_axis',(0.,-1.,-1.83697019872103E-16));
#209=DIRECTION('ref_axis',(0.,-1.83697019872103E-16,1.));
#210=DIRECTION('center_axis',(1.,0.,-1.22464679914735E-16));
#211=DIRECTION('ref_axis',(1.22464679914735E-16,0.,1.));
#212=DIRECTION('center_axis',(0.,1.,1.83697019872103E-16));
#213=DIRECTION('ref_axis',(0.,-1.83697019872103E-16,1.));
#214=DIRECTION('center_axis',(0.,1.,-6.12323399573677E-17));
#215=DIRECTION('ref_axis',(0.,0.,-1.));
#216=DIRECTION('center_axis',(0.,-1.,-1.83697019872103E-16));
#217=DIRECTION('ref_axis',(0.,-1.83697019872103E-16,1.));
#218=DIRECTION('center_axis',(-1.,0.,1.22464679914735E-16));
#219=DIRECTION('ref_axis',(1.22464679914735E-16,0.,1.));
#220=DIRECTION('center_axis',(0.,-1.,-1.83697019872103E-16));
#221=DIRECTION('ref_axis',(0.,1.83697019872103E-16,-1.));
#222=DIRECTION('center_axis',(0.,-1.,-1.83697019872103E-16));
#223=DIRECTION('ref_axis',(0.,1.83697019872103E-16,-1.));
#224=DIRECTION('center_axis',(0.,-1.,-1.83697019872103E-16));
#225=DIRECTION('ref_axis',(-1.,0.,0.));
#226=DIRECTION('center_axis',(0.,1.,0.));
#227=DIRECTION('ref_axis',(-1.,0.,0.));
#228=DIRECTION('',(0.,1.,0.));
#229=DIRECTION('center_axis',(0.,-1.,-1.83697019872103E-16));
#230=DIRECTION('ref_axis',(0.,1.83697019872103E-16,-1.));
#231=DIRECTION('center_axis',(0.,-1.,-1.83697019872103E-16));
#232=DIRECTION('ref_axis',(1.,0.,0.));
#233=DIRECTION('center_axis',(0.,1.,-6.12323399573677E-17));
#234=DIRECTION('ref_axis',(0.,0.,-1.));
#235=DIRECTION('center_axis',(1.,0.,-1.22464679914735E-16));
#236=DIRECTION('ref_axis',(1.22464679914735E-16,0.,1.));
#237=CARTESIAN_POINT('',(0.,0.,0.));
#238=CARTESIAN_POINT('Origin',(-14.3,7.5,5.55111512312578E-16));
#239=CARTESIAN_POINT('',(-14.3,15.,3.81444622455214));
#240=CARTESIAN_POINT('',(-14.3,0.,3.81444622455214));
#241=CARTESIAN_POINT('',(-14.3,0.,3.81444622455214));
#242=CARTESIAN_POINT('',(-14.3,15.,-3.81444622455214));
#243=CARTESIAN_POINT('',(-14.3,15.,-5.));
#244=CARTESIAN_POINT('',(-14.3,0.,-3.81444622455214));
#245=CARTESIAN_POINT('',(-14.3,0.,-3.81444622455214));
#246=CARTESIAN_POINT('',(-14.3,0.,2.77555756156289E-16));
#247=CARTESIAN_POINT('Origin',(0.,0.,0.));
#248=CARTESIAN_POINT('Origin',(0.,0.,0.));
#249=CARTESIAN_POINT('Origin',(0.,15.,0.));
#250=CARTESIAN_POINT('Origin',(0.,0.,0.));
#251=CARTESIAN_POINT('',(12.8,0.,1.56754790290861E-15));
#252=CARTESIAN_POINT('Origin',(0.,0.,0.));
#253=CARTESIAN_POINT('Origin',(0.,15.,0.));
#254=CARTESIAN_POINT('',(1.8020314579424E-15,17.,14.7147035308225));
#255=CARTESIAN_POINT('Origin',(0.,17.,3.67394039744206E-16));
#256=CARTESIAN_POINT('',(1.81447242164048E-15,16.,14.8162917087914));
#257=CARTESIAN_POINT('Origin',(0.,15.,0.));
#258=CARTESIAN_POINT('Origin',(0.,16.,1.83697019872103E-16));
#259=CARTESIAN_POINT('Origin',(0.,15.,0.));
#260=CARTESIAN_POINT('',(1.93719808542417E-15,16.,15.818422803807));
#261=CARTESIAN_POINT('Origin',(0.,16.,1.83697019872103E-16));
#262=CARTESIAN_POINT('',(1.18855962775952E-31,30.85,9.70532588324278E-16));
#263=CARTESIAN_POINT('Origin',(0.,15.,0.));
#264=CARTESIAN_POINT('Origin',(0.,16.,1.83697019872103E-16));
#265=CARTESIAN_POINT('Origin',(0.,17.,3.67394039744206E-16));
#266=CARTESIAN_POINT('',(12.8,17.,1.56754790290861E-15));
#267=CARTESIAN_POINT('Origin',(0.,17.,0.));
#268=CARTESIAN_POINT('Origin',(0.,0.,0.));
#269=CARTESIAN_POINT('',(12.8,0.,-1.56754790290861E-15));
#270=CARTESIAN_POINT('Origin',(0.,15.,0.));
#271=CARTESIAN_POINT('',(2.06352985656329E-15,15.,16.85));
#272=CARTESIAN_POINT('Origin',(0.,15.,-6.53745171330742E-31));
#273=CARTESIAN_POINT('Origin',(0.,15.,0.));
#274=CARTESIAN_POINT('',(1.26354761689262E-31,31.85,1.03176492828165E-15));
#275=CARTESIAN_POINT('Origin',(0.,15.,0.));
#276=UNCERTAINTY_MEASURE_WITH_UNIT(LENGTH_MEASURE(0.01),#280,
'DISTANCE_ACCURACY_VALUE',
'Maximum model space distance between geometric entities at asserted c
onnectivities');
#277=UNCERTAINTY_MEASURE_WITH_UNIT(LENGTH_MEASURE(0.01),#280,
'DISTANCE_ACCURACY_VALUE',
'Maximum model space distance between geometric entities at asserted c
onnectivities');
#278=(
GEOMETRIC_REPRESENTATION_CONTEXT(3)
GLOBAL_UNCERTAINTY_ASSIGNED_CONTEXT((#276))
GLOBAL_UNIT_ASSIGNED_CONTEXT((#280,#282,#283))
REPRESENTATION_CONTEXT('','3D')
);
#279=(
GEOMETRIC_REPRESENTATION_CONTEXT(3)
GLOBAL_UNCERTAINTY_ASSIGNED_CONTEXT((#277))
GLOBAL_UNIT_ASSIGNED_CONTEXT((#280,#282,#283))
REPRESENTATION_CONTEXT('','3D')
);
#280=(
LENGTH_UNIT()
NAMED_UNIT(*)
SI_UNIT(.MILLI.,.METRE.)
);
#281=(
LENGTH_UNIT()
NAMED_UNIT(*)
SI_UNIT(.CENTI.,.METRE.)
);
#282=(
NAMED_UNIT(*)
PLANE_ANGLE_UNIT()
SI_UNIT($,.RADIAN.)
);
#283=(
NAMED_UNIT(*)
SI_UNIT($,.STERADIAN.)
SOLID_ANGLE_UNIT()
);
#284=SHAPE_DEFINITION_REPRESENTATION(#285,#286);
#285=PRODUCT_DEFINITION_SHAPE('',$,#288);
#286=SHAPE_REPRESENTATION('',(#166),#278);
#287=PRODUCT_DEFINITION_CONTEXT('part definition',#292,'design');
#288=PRODUCT_DEFINITION('48021','48021',#289,#287);
#289=PRODUCT_DEFINITION_FORMATION('',$,#294);
#290=PRODUCT_RELATED_PRODUCT_CATEGORY('48021','48021',(#294));
#291=APPLICATION_PROTOCOL_DEFINITION('international standard',
'automotive_design',2009,#292);
#292=APPLICATION_CONTEXT(
'Core Data for Automotive Mechanical Design Process');
#293=PRODUCT_CONTEXT('part definition',#292,'mechanical');
#294=PRODUCT('48021','48021',$,(#293));
#295=PRESENTATION_STYLE_ASSIGNMENT((#296));
#296=SURFACE_STYLE_USAGE(.BOTH.,#299);
#297=SURFACE_STYLE_RENDERING_WITH_PROPERTIES($,#303,(#298));
#298=SURFACE_STYLE_TRANSPARENT(0.);
#299=SURFACE_SIDE_STYLE('',(#300,#297));
#300=SURFACE_STYLE_FILL_AREA(#301);
#301=FILL_AREA_STYLE('',(#302));
#302=FILL_AREA_STYLE_COLOUR('',#303);
#303=COLOUR_RGB('',0.956862745098039,0.956862745098039,0.956862745098039);
ENDSEC;
END-ISO-10303-21;
