ISO-10303-21;
HEADER;
/* Generated by software containing ST-Developer
 * from STEP Tools, Inc. (www.steptools.com) 
 */

FILE_DESCRIPTION(
/* description */ (''),
/* implementation_level */ '2;1');

FILE_NAME(
/* name */ 
'C:\\Users\\O.Boryczka\\Desktop\\Korrigierte Zeichnungen\\Abschlusssto
pfen rund V2A\\IPT_Daten\\Klebestopfen\\48070.ipt.step',
/* time_stamp */ '2022-07-18T12:52:48+02:00',
/* author */ ('Abt. Technik'),
/* organization */ (''),
/* preprocessor_version */ 'ST-DEVELOPER v18.1',
/* originating_system */ 'Autodesk Inventor 2022',
/* authorisation */ '');

FILE_SCHEMA (('AUTOMOTIVE_DESIGN { 1 0 10303 214 3 1 1 }'));
ENDSEC;

DATA;
#10=MECHANICAL_DESIGN_GEOMETRIC_PRESENTATION_REPRESENTATION('',(#13),#540);
#11=SHAPE_REPRESENTATION_RELATIONSHIP('SRR','None',#547,#12);
#12=ADVANCED_BREP_SHAPE_REPRESENTATION('',(#14),#539);
#13=STYLED_ITEM('',(#556),#14);
#14=MANIFOLD_SOLID_BREP('Volumenk\X\F6rper1',#286);
#15=SPHERICAL_SURFACE('',#324,58.);
#16=SPHERICAL_SURFACE('',#342,55.);
#17=TOROIDAL_SURFACE('',#318,7.,1.);
#18=TOROIDAL_SURFACE('',#337,16.7,0.5);
#19=TOROIDAL_SURFACE('',#345,20.7,0.5);
#20=FACE_BOUND('',#59,.T.);
#21=FACE_BOUND('',#64,.T.);
#22=FACE_BOUND('',#72,.T.);
#23=FACE_BOUND('',#77,.T.);
#24=FACE_BOUND('',#79,.T.);
#25=PLANE('',#315);
#26=PLANE('',#329);
#27=PLANE('',#330);
#28=PLANE('',#332);
#29=PLANE('',#351);
#30=PLANE('',#352);
#31=CYLINDRICAL_SURFACE('',#313,3.);
#32=CYLINDRICAL_SURFACE('',#323,6.);
#33=CYLINDRICAL_SURFACE('',#326,6.);
#34=CYLINDRICAL_SURFACE('',#333,19.2);
#35=CYLINDRICAL_SURFACE('',#343,17.2);
#36=CYLINDRICAL_SURFACE('',#349,21.2);
#37=FACE_OUTER_BOUND('',#56,.T.);
#38=FACE_OUTER_BOUND('',#57,.T.);
#39=FACE_OUTER_BOUND('',#58,.T.);
#40=FACE_OUTER_BOUND('',#60,.T.);
#41=FACE_OUTER_BOUND('',#61,.T.);
#42=FACE_OUTER_BOUND('',#62,.T.);
#43=FACE_OUTER_BOUND('',#63,.T.);
#44=FACE_OUTER_BOUND('',#65,.T.);
#45=FACE_OUTER_BOUND('',#66,.T.);
#46=FACE_OUTER_BOUND('',#67,.T.);
#47=FACE_OUTER_BOUND('',#68,.T.);
#48=FACE_OUTER_BOUND('',#69,.T.);
#49=FACE_OUTER_BOUND('',#70,.T.);
#50=FACE_OUTER_BOUND('',#71,.T.);
#51=FACE_OUTER_BOUND('',#73,.T.);
#52=FACE_OUTER_BOUND('',#74,.T.);
#53=FACE_OUTER_BOUND('',#75,.T.);
#54=FACE_OUTER_BOUND('',#76,.T.);
#55=FACE_OUTER_BOUND('',#78,.T.);
#56=EDGE_LOOP('',(#191,#192,#193,#194,#195));
#57=EDGE_LOOP('',(#196,#197,#198,#199,#200));
#58=EDGE_LOOP('',(#201));
#59=EDGE_LOOP('',(#202));
#60=EDGE_LOOP('',(#203,#204,#205));
#61=EDGE_LOOP('',(#206,#207,#208,#209,#210));
#62=EDGE_LOOP('',(#211,#212,#213,#214,#215));
#63=EDGE_LOOP('',(#216));
#64=EDGE_LOOP('',(#217));
#65=EDGE_LOOP('',(#218,#219,#220,#221));
#66=EDGE_LOOP('',(#222));
#67=EDGE_LOOP('',(#223,#224));
#68=EDGE_LOOP('',(#225,#226,#227,#228));
#69=EDGE_LOOP('',(#229,#230,#231,#232,#233,#234,#235,#236));
#70=EDGE_LOOP('',(#237,#238,#239,#240,#241));
#71=EDGE_LOOP('',(#242));
#72=EDGE_LOOP('',(#243));
#73=EDGE_LOOP('',(#244,#245,#246,#247,#248));
#74=EDGE_LOOP('',(#249,#250,#251,#252,#253));
#75=EDGE_LOOP('',(#254,#255,#256,#257,#258));
#76=EDGE_LOOP('',(#259));
#77=EDGE_LOOP('',(#260));
#78=EDGE_LOOP('',(#261,#262,#263));
#79=EDGE_LOOP('',(#264));
#80=LINE('',#460,#92);
#81=LINE('',#466,#93);
#82=LINE('',#473,#94);
#83=LINE('',#483,#95);
#84=LINE('',#491,#96);
#85=LINE('',#498,#97);
#86=LINE('',#501,#98);
#87=LINE('',#503,#99);
#88=LINE('',#504,#100);
#89=LINE('',#509,#101);
#90=LINE('',#523,#102);
#91=LINE('',#533,#103);
#92=VECTOR('',#359,4.25);
#93=VECTOR('',#366,3.);
#94=VECTOR('',#375,1.5);
#95=VECTOR('',#388,6.);
#96=VECTOR('',#397,6.);
#97=VECTOR('',#406,10.);
#98=VECTOR('',#409,10.);
#99=VECTOR('',#410,10.);
#100=VECTOR('',#411,10.);
#101=VECTOR('',#416,19.2);
#102=VECTOR('',#435,17.2);
#103=VECTOR('',#448,21.2);
#104=CIRCLE('',#310,5.5);
#105=CIRCLE('',#311,3.);
#106=CIRCLE('',#312,3.);
#107=CIRCLE('',#314,3.);
#108=CIRCLE('',#316,6.);
#109=CIRCLE('',#319,6.);
#110=CIRCLE('',#320,1.);
#111=CIRCLE('',#321,6.88135593220339);
#112=CIRCLE('',#322,6.);
#113=CIRCLE('',#325,20.88);
#114=CIRCLE('',#327,6.);
#115=CIRCLE('',#328,6.);
#116=CIRCLE('',#331,19.2);
#117=CIRCLE('',#334,19.2);
#118=CIRCLE('',#335,19.2);
#119=CIRCLE('',#336,19.2);
#120=CIRCLE('',#338,17.2);
#121=CIRCLE('',#339,0.5);
#122=CIRCLE('',#340,16.8532110091743);
#123=CIRCLE('',#341,17.2);
#124=CIRCLE('',#344,17.2);
#125=CIRCLE('',#346,0.5);
#126=CIRCLE('',#347,21.2);
#127=CIRCLE('',#348,21.2);
#128=CIRCLE('',#350,21.2);
#129=VERTEX_POINT('',#457);
#130=VERTEX_POINT('',#459);
#131=VERTEX_POINT('',#461);
#132=VERTEX_POINT('',#465);
#133=VERTEX_POINT('',#469);
#134=VERTEX_POINT('',#472);
#135=VERTEX_POINT('',#475);
#136=VERTEX_POINT('',#476);
#137=VERTEX_POINT('',#478);
#138=VERTEX_POINT('',#485);
#139=VERTEX_POINT('',#488);
#140=VERTEX_POINT('',#490);
#141=VERTEX_POINT('',#495);
#142=VERTEX_POINT('',#496);
#143=VERTEX_POINT('',#500);
#144=VERTEX_POINT('',#502);
#145=VERTEX_POINT('',#506);
#146=VERTEX_POINT('',#508);
#147=VERTEX_POINT('',#513);
#148=VERTEX_POINT('',#514);
#149=VERTEX_POINT('',#516);
#150=VERTEX_POINT('',#522);
#151=VERTEX_POINT('',#526);
#152=VERTEX_POINT('',#528);
#153=VERTEX_POINT('',#532);
#154=EDGE_CURVE('',#129,#129,#104,.T.);
#155=EDGE_CURVE('',#129,#130,#80,.T.);
#156=EDGE_CURVE('',#130,#131,#105,.T.);
#157=EDGE_CURVE('',#131,#130,#106,.T.);
#158=EDGE_CURVE('',#131,#132,#81,.T.);
#159=EDGE_CURVE('',#132,#132,#107,.T.);
#160=EDGE_CURVE('',#133,#133,#108,.T.);
#161=EDGE_CURVE('',#132,#134,#82,.T.);
#162=EDGE_CURVE('',#135,#136,#109,.T.);
#163=EDGE_CURVE('',#136,#137,#110,.T.);
#164=EDGE_CURVE('',#137,#137,#111,.T.);
#165=EDGE_CURVE('',#136,#135,#112,.T.);
#166=EDGE_CURVE('',#135,#133,#83,.T.);
#167=EDGE_CURVE('',#138,#138,#113,.T.);
#168=EDGE_CURVE('',#139,#139,#114,.T.);
#169=EDGE_CURVE('',#139,#140,#84,.T.);
#170=EDGE_CURVE('',#140,#140,#115,.T.);
#171=EDGE_CURVE('',#141,#142,#116,.T.);
#172=EDGE_CURVE('',#141,#142,#85,.T.);
#173=EDGE_CURVE('',#143,#141,#86,.T.);
#174=EDGE_CURVE('',#144,#143,#87,.T.);
#175=EDGE_CURVE('',#142,#144,#88,.T.);
#176=EDGE_CURVE('',#145,#145,#117,.T.);
#177=EDGE_CURVE('',#145,#146,#89,.T.);
#178=EDGE_CURVE('',#146,#143,#118,.T.);
#179=EDGE_CURVE('',#144,#146,#119,.T.);
#180=EDGE_CURVE('',#147,#148,#120,.T.);
#181=EDGE_CURVE('',#148,#149,#121,.T.);
#182=EDGE_CURVE('',#149,#149,#122,.T.);
#183=EDGE_CURVE('',#148,#147,#123,.T.);
#184=EDGE_CURVE('',#147,#150,#90,.T.);
#185=EDGE_CURVE('',#150,#150,#124,.T.);
#186=EDGE_CURVE('',#138,#151,#125,.T.);
#187=EDGE_CURVE('',#151,#152,#126,.T.);
#188=EDGE_CURVE('',#152,#151,#127,.T.);
#189=EDGE_CURVE('',#152,#153,#91,.T.);
#190=EDGE_CURVE('',#153,#153,#128,.T.);
#191=ORIENTED_EDGE('',*,*,#154,.T.);
#192=ORIENTED_EDGE('',*,*,#155,.T.);
#193=ORIENTED_EDGE('',*,*,#156,.T.);
#194=ORIENTED_EDGE('',*,*,#157,.T.);
#195=ORIENTED_EDGE('',*,*,#155,.F.);
#196=ORIENTED_EDGE('',*,*,#156,.F.);
#197=ORIENTED_EDGE('',*,*,#157,.F.);
#198=ORIENTED_EDGE('',*,*,#158,.T.);
#199=ORIENTED_EDGE('',*,*,#159,.F.);
#200=ORIENTED_EDGE('',*,*,#158,.F.);
#201=ORIENTED_EDGE('',*,*,#160,.F.);
#202=ORIENTED_EDGE('',*,*,#154,.F.);
#203=ORIENTED_EDGE('',*,*,#159,.T.);
#204=ORIENTED_EDGE('',*,*,#161,.T.);
#205=ORIENTED_EDGE('',*,*,#161,.F.);
#206=ORIENTED_EDGE('',*,*,#162,.T.);
#207=ORIENTED_EDGE('',*,*,#163,.T.);
#208=ORIENTED_EDGE('',*,*,#164,.T.);
#209=ORIENTED_EDGE('',*,*,#163,.F.);
#210=ORIENTED_EDGE('',*,*,#165,.T.);
#211=ORIENTED_EDGE('',*,*,#162,.F.);
#212=ORIENTED_EDGE('',*,*,#166,.T.);
#213=ORIENTED_EDGE('',*,*,#160,.T.);
#214=ORIENTED_EDGE('',*,*,#166,.F.);
#215=ORIENTED_EDGE('',*,*,#165,.F.);
#216=ORIENTED_EDGE('',*,*,#167,.F.);
#217=ORIENTED_EDGE('',*,*,#164,.F.);
#218=ORIENTED_EDGE('',*,*,#168,.F.);
#219=ORIENTED_EDGE('',*,*,#169,.T.);
#220=ORIENTED_EDGE('',*,*,#170,.F.);
#221=ORIENTED_EDGE('',*,*,#169,.F.);
#222=ORIENTED_EDGE('',*,*,#168,.T.);
#223=ORIENTED_EDGE('',*,*,#171,.F.);
#224=ORIENTED_EDGE('',*,*,#172,.T.);
#225=ORIENTED_EDGE('',*,*,#173,.F.);
#226=ORIENTED_EDGE('',*,*,#174,.F.);
#227=ORIENTED_EDGE('',*,*,#175,.F.);
#228=ORIENTED_EDGE('',*,*,#172,.F.);
#229=ORIENTED_EDGE('',*,*,#176,.F.);
#230=ORIENTED_EDGE('',*,*,#177,.T.);
#231=ORIENTED_EDGE('',*,*,#178,.T.);
#232=ORIENTED_EDGE('',*,*,#173,.T.);
#233=ORIENTED_EDGE('',*,*,#171,.T.);
#234=ORIENTED_EDGE('',*,*,#175,.T.);
#235=ORIENTED_EDGE('',*,*,#179,.T.);
#236=ORIENTED_EDGE('',*,*,#177,.F.);
#237=ORIENTED_EDGE('',*,*,#180,.T.);
#238=ORIENTED_EDGE('',*,*,#181,.T.);
#239=ORIENTED_EDGE('',*,*,#182,.T.);
#240=ORIENTED_EDGE('',*,*,#181,.F.);
#241=ORIENTED_EDGE('',*,*,#183,.T.);
#242=ORIENTED_EDGE('',*,*,#182,.F.);
#243=ORIENTED_EDGE('',*,*,#170,.T.);
#244=ORIENTED_EDGE('',*,*,#180,.F.);
#245=ORIENTED_EDGE('',*,*,#184,.T.);
#246=ORIENTED_EDGE('',*,*,#185,.T.);
#247=ORIENTED_EDGE('',*,*,#184,.F.);
#248=ORIENTED_EDGE('',*,*,#183,.F.);
#249=ORIENTED_EDGE('',*,*,#167,.T.);
#250=ORIENTED_EDGE('',*,*,#186,.T.);
#251=ORIENTED_EDGE('',*,*,#187,.T.);
#252=ORIENTED_EDGE('',*,*,#188,.T.);
#253=ORIENTED_EDGE('',*,*,#186,.F.);
#254=ORIENTED_EDGE('',*,*,#188,.F.);
#255=ORIENTED_EDGE('',*,*,#189,.T.);
#256=ORIENTED_EDGE('',*,*,#190,.T.);
#257=ORIENTED_EDGE('',*,*,#189,.F.);
#258=ORIENTED_EDGE('',*,*,#187,.F.);
#259=ORIENTED_EDGE('',*,*,#190,.F.);
#260=ORIENTED_EDGE('',*,*,#176,.T.);
#261=ORIENTED_EDGE('',*,*,#174,.T.);
#262=ORIENTED_EDGE('',*,*,#178,.F.);
#263=ORIENTED_EDGE('',*,*,#179,.F.);
#264=ORIENTED_EDGE('',*,*,#185,.F.);
#265=CONICAL_SURFACE('',#309,4.25,0.785398163397448);
#266=CONICAL_SURFACE('',#317,1.5,1.02974425867665);
#267=ADVANCED_FACE('',(#37),#265,.F.);
#268=ADVANCED_FACE('',(#38),#31,.F.);
#269=ADVANCED_FACE('',(#39,#20),#25,.T.);
#270=ADVANCED_FACE('',(#40),#266,.F.);
#271=ADVANCED_FACE('',(#41),#17,.F.);
#272=ADVANCED_FACE('',(#42),#32,.T.);
#273=ADVANCED_FACE('',(#43,#21),#15,.T.);
#274=ADVANCED_FACE('',(#44),#33,.T.);
#275=ADVANCED_FACE('',(#45),#26,.F.);
#276=ADVANCED_FACE('',(#46),#27,.F.);
#277=ADVANCED_FACE('',(#47),#28,.F.);
#278=ADVANCED_FACE('',(#48),#34,.T.);
#279=ADVANCED_FACE('',(#49),#18,.F.);
#280=ADVANCED_FACE('',(#50,#22),#16,.F.);
#281=ADVANCED_FACE('',(#51),#35,.F.);
#282=ADVANCED_FACE('',(#52),#19,.T.);
#283=ADVANCED_FACE('',(#53),#36,.T.);
#284=ADVANCED_FACE('',(#54,#23),#29,.F.);
#285=ADVANCED_FACE('',(#55,#24),#30,.F.);
#286=CLOSED_SHELL('',(#267,#268,#269,#270,#271,#272,#273,#274,#275,#276,
#277,#278,#279,#280,#281,#282,#283,#284,#285));
#287=DERIVED_UNIT_ELEMENT(#290,1.);
#288=DERIVED_UNIT_ELEMENT(#542,-3.);
#289=DIMENSIONAL_EXPONENTS(1.,0.,0.,0.,0.,0.,0.);
#290=(
CONVERSION_BASED_UNIT('gram',#292)
MASS_UNIT()
NAMED_UNIT(#289)
);
#291=(
MASS_UNIT()
NAMED_UNIT(*)
SI_UNIT(.KILO.,.GRAM.)
);
#292=MASS_MEASURE_WITH_UNIT(MASS_MEASURE(0.001),#291);
#293=DERIVED_UNIT((#287,#288));
#294=MEASURE_REPRESENTATION_ITEM('density measure',
POSITIVE_RATIO_MEASURE(8.),#293);
#295=PROPERTY_DEFINITION_REPRESENTATION(#300,#297);
#296=PROPERTY_DEFINITION_REPRESENTATION(#301,#298);
#297=REPRESENTATION('material name',(#299),#539);
#298=REPRESENTATION('density',(#294),#539);
#299=DESCRIPTIVE_REPRESENTATION_ITEM('Edelstahl AISI 304',
'Edelstahl AISI 304');
#300=PROPERTY_DEFINITION('material property','material name',#549);
#301=PROPERTY_DEFINITION('material property','density of part',#549);
#302=DATE_TIME_ROLE('creation_date');
#303=APPLIED_DATE_AND_TIME_ASSIGNMENT(#304,#302,(#549));
#304=DATE_AND_TIME(#305,#306);
#305=CALENDAR_DATE(2021,11,5);
#306=LOCAL_TIME(0,0,0.,#307);
#307=COORDINATED_UNIVERSAL_TIME_OFFSET(0,0,.BEHIND.);
#308=AXIS2_PLACEMENT_3D('placement',#455,#353,#354);
#309=AXIS2_PLACEMENT_3D('',#456,#355,#356);
#310=AXIS2_PLACEMENT_3D('',#458,#357,#358);
#311=AXIS2_PLACEMENT_3D('',#462,#360,#361);
#312=AXIS2_PLACEMENT_3D('',#463,#362,#363);
#313=AXIS2_PLACEMENT_3D('',#464,#364,#365);
#314=AXIS2_PLACEMENT_3D('',#467,#367,#368);
#315=AXIS2_PLACEMENT_3D('',#468,#369,#370);
#316=AXIS2_PLACEMENT_3D('',#470,#371,#372);
#317=AXIS2_PLACEMENT_3D('',#471,#373,#374);
#318=AXIS2_PLACEMENT_3D('',#474,#376,#377);
#319=AXIS2_PLACEMENT_3D('',#477,#378,#379);
#320=AXIS2_PLACEMENT_3D('',#479,#380,#381);
#321=AXIS2_PLACEMENT_3D('',#480,#382,#383);
#322=AXIS2_PLACEMENT_3D('',#481,#384,#385);
#323=AXIS2_PLACEMENT_3D('',#482,#386,#387);
#324=AXIS2_PLACEMENT_3D('',#484,#389,#390);
#325=AXIS2_PLACEMENT_3D('',#486,#391,#392);
#326=AXIS2_PLACEMENT_3D('',#487,#393,#394);
#327=AXIS2_PLACEMENT_3D('',#489,#395,#396);
#328=AXIS2_PLACEMENT_3D('',#492,#398,#399);
#329=AXIS2_PLACEMENT_3D('',#493,#400,#401);
#330=AXIS2_PLACEMENT_3D('',#494,#402,#403);
#331=AXIS2_PLACEMENT_3D('',#497,#404,#405);
#332=AXIS2_PLACEMENT_3D('',#499,#407,#408);
#333=AXIS2_PLACEMENT_3D('',#505,#412,#413);
#334=AXIS2_PLACEMENT_3D('',#507,#414,#415);
#335=AXIS2_PLACEMENT_3D('',#510,#417,#418);
#336=AXIS2_PLACEMENT_3D('',#511,#419,#420);
#337=AXIS2_PLACEMENT_3D('',#512,#421,#422);
#338=AXIS2_PLACEMENT_3D('',#515,#423,#424);
#339=AXIS2_PLACEMENT_3D('',#517,#425,#426);
#340=AXIS2_PLACEMENT_3D('',#518,#427,#428);
#341=AXIS2_PLACEMENT_3D('',#519,#429,#430);
#342=AXIS2_PLACEMENT_3D('',#520,#431,#432);
#343=AXIS2_PLACEMENT_3D('',#521,#433,#434);
#344=AXIS2_PLACEMENT_3D('',#524,#436,#437);
#345=AXIS2_PLACEMENT_3D('',#525,#438,#439);
#346=AXIS2_PLACEMENT_3D('',#527,#440,#441);
#347=AXIS2_PLACEMENT_3D('',#529,#442,#443);
#348=AXIS2_PLACEMENT_3D('',#530,#444,#445);
#349=AXIS2_PLACEMENT_3D('',#531,#446,#447);
#350=AXIS2_PLACEMENT_3D('',#534,#449,#450);
#351=AXIS2_PLACEMENT_3D('',#535,#451,#452);
#352=AXIS2_PLACEMENT_3D('',#536,#453,#454);
#353=DIRECTION('axis',(0.,0.,1.));
#354=DIRECTION('refdir',(1.,0.,0.));
#355=DIRECTION('center_axis',(0.,1.,0.));
#356=DIRECTION('ref_axis',(-1.,0.,0.));
#357=DIRECTION('center_axis',(0.,1.,0.));
#358=DIRECTION('ref_axis',(-1.,0.,0.));
#359=DIRECTION('',(-0.707106781186548,-0.707106781186548,8.65956056235493E-17));
#360=DIRECTION('center_axis',(0.,-1.,0.));
#361=DIRECTION('ref_axis',(-1.,0.,0.));
#362=DIRECTION('center_axis',(0.,-1.,0.));
#363=DIRECTION('ref_axis',(-1.,0.,0.));
#364=DIRECTION('center_axis',(0.,1.,0.));
#365=DIRECTION('ref_axis',(1.,0.,0.));
#366=DIRECTION('',(0.,-1.,0.));
#367=DIRECTION('center_axis',(0.,1.,0.));
#368=DIRECTION('ref_axis',(1.,0.,0.));
#369=DIRECTION('center_axis',(0.,1.,0.));
#370=DIRECTION('ref_axis',(0.,0.,1.));
#371=DIRECTION('center_axis',(0.,-1.,0.));
#372=DIRECTION('ref_axis',(-1.,0.,0.));
#373=DIRECTION('center_axis',(0.,1.,0.));
#374=DIRECTION('ref_axis',(1.,0.,0.));
#375=DIRECTION('',(0.857167300702112,-0.515038074910054,-1.04972719113862E-16));
#376=DIRECTION('center_axis',(0.,-1.,0.));
#377=DIRECTION('ref_axis',(0.,0.,-1.));
#378=DIRECTION('center_axis',(0.,-1.,0.));
#379=DIRECTION('ref_axis',(-1.,0.,0.));
#380=DIRECTION('center_axis',(-1.,0.,-1.22464679914735E-16));
#381=DIRECTION('ref_axis',(-1.22464679914735E-16,0.,1.));
#382=DIRECTION('center_axis',(0.,1.,0.));
#383=DIRECTION('ref_axis',(-1.,0.,0.));
#384=DIRECTION('center_axis',(0.,-1.,0.));
#385=DIRECTION('ref_axis',(-1.,0.,0.));
#386=DIRECTION('center_axis',(0.,-1.,0.));
#387=DIRECTION('ref_axis',(-1.,0.,0.));
#388=DIRECTION('',(0.,1.,0.));
#389=DIRECTION('center_axis',(6.12323399573677E-17,0.,1.));
#390=DIRECTION('ref_axis',(1.,0.,0.));
#391=DIRECTION('center_axis',(0.,-1.,0.));
#392=DIRECTION('ref_axis',(1.,0.,0.));
#393=DIRECTION('center_axis',(0.,-1.,0.));
#394=DIRECTION('ref_axis',(-1.,0.,0.));
#395=DIRECTION('center_axis',(0.,-1.,0.));
#396=DIRECTION('ref_axis',(-1.,0.,0.));
#397=DIRECTION('',(0.,1.,0.));
#398=DIRECTION('center_axis',(0.,1.,0.));
#399=DIRECTION('ref_axis',(-1.,0.,0.));
#400=DIRECTION('center_axis',(0.,1.,0.));
#401=DIRECTION('ref_axis',(0.,0.,1.));
#402=DIRECTION('center_axis',(-4.44089209850063E-16,1.,0.));
#403=DIRECTION('ref_axis',(-1.,-4.44089209850063E-16,0.));
#404=DIRECTION('center_axis',(-4.44089209850063E-16,1.,0.));
#405=DIRECTION('ref_axis',(-1.,0.,0.));
#406=DIRECTION('',(-1.,-4.44089209850063E-16,0.));
#407=DIRECTION('center_axis',(0.,0.,1.));
#408=DIRECTION('ref_axis',(1.,0.,0.));
#409=DIRECTION('',(0.,1.,0.));
#410=DIRECTION('',(1.,0.,0.));
#411=DIRECTION('',(0.,-1.,0.));
#412=DIRECTION('center_axis',(0.,1.,0.));
#413=DIRECTION('ref_axis',(-1.,0.,0.));
#414=DIRECTION('center_axis',(0.,1.,0.));
#415=DIRECTION('ref_axis',(-1.,0.,0.));
#416=DIRECTION('',(0.,-1.,0.));
#417=DIRECTION('center_axis',(0.,1.,0.));
#418=DIRECTION('ref_axis',(-1.,0.,0.));
#419=DIRECTION('center_axis',(0.,1.,0.));
#420=DIRECTION('ref_axis',(-1.,0.,0.));
#421=DIRECTION('center_axis',(0.,-1.,0.));
#422=DIRECTION('ref_axis',(0.,0.,-1.));
#423=DIRECTION('center_axis',(0.,-1.,0.));
#424=DIRECTION('ref_axis',(-1.,0.,0.));
#425=DIRECTION('center_axis',(-1.,0.,-1.22464679914735E-16));
#426=DIRECTION('ref_axis',(-1.22464679914735E-16,0.,1.));
#427=DIRECTION('center_axis',(0.,1.,0.));
#428=DIRECTION('ref_axis',(-1.,0.,0.));
#429=DIRECTION('center_axis',(0.,-1.,0.));
#430=DIRECTION('ref_axis',(-1.,0.,0.));
#431=DIRECTION('center_axis',(6.12323399573677E-17,0.,1.));
#432=DIRECTION('ref_axis',(1.,0.,0.));
#433=DIRECTION('center_axis',(0.,1.,0.));
#434=DIRECTION('ref_axis',(1.,0.,0.));
#435=DIRECTION('',(0.,-1.,0.));
#436=DIRECTION('center_axis',(0.,-1.,0.));
#437=DIRECTION('ref_axis',(1.,0.,0.));
#438=DIRECTION('center_axis',(0.,1.,0.));
#439=DIRECTION('ref_axis',(0.,0.,1.));
#440=DIRECTION('center_axis',(-1.,0.,1.22464679914735E-16));
#441=DIRECTION('ref_axis',(-1.22464679914735E-16,0.,-1.));
#442=DIRECTION('center_axis',(0.,1.,0.));
#443=DIRECTION('ref_axis',(1.,0.,0.));
#444=DIRECTION('center_axis',(0.,1.,0.));
#445=DIRECTION('ref_axis',(1.,0.,0.));
#446=DIRECTION('center_axis',(0.,1.,0.));
#447=DIRECTION('ref_axis',(1.,0.,0.));
#448=DIRECTION('',(0.,-1.,0.));
#449=DIRECTION('center_axis',(0.,1.,0.));
#450=DIRECTION('ref_axis',(1.,0.,0.));
#451=DIRECTION('center_axis',(0.,1.,0.));
#452=DIRECTION('ref_axis',(0.,0.,1.));
#453=DIRECTION('center_axis',(0.,1.,0.));
#454=DIRECTION('ref_axis',(0.,0.,1.));
#455=CARTESIAN_POINT('',(0.,0.,0.));
#456=CARTESIAN_POINT('Origin',(0.,94.75,0.));
#457=CARTESIAN_POINT('',(5.5,96.,-6.73555739531044E-16));
#458=CARTESIAN_POINT('Origin',(0.,96.,0.));
#459=CARTESIAN_POINT('',(3.,93.5,3.67394039744206E-16));
#460=CARTESIAN_POINT('',(4.25,94.75,-5.20474889637625E-16));
#461=CARTESIAN_POINT('',(-3.,93.5,3.67394039744206E-16));
#462=CARTESIAN_POINT('Origin',(0.,93.5,0.));
#463=CARTESIAN_POINT('Origin',(0.,93.5,0.));
#464=CARTESIAN_POINT('Origin',(0.,88.,0.));
#465=CARTESIAN_POINT('',(-3.,80.,3.67394039744206E-16));
#466=CARTESIAN_POINT('',(-3.,88.,3.67394039744206E-16));
#467=CARTESIAN_POINT('Origin',(0.,80.,0.));
#468=CARTESIAN_POINT('Origin',(0.,96.,0.));
#469=CARTESIAN_POINT('',(6.,96.,0.));
#470=CARTESIAN_POINT('Origin',(0.,96.,0.));
#471=CARTESIAN_POINT('Origin',(0.,79.0987090714587,0.));
#472=CARTESIAN_POINT('',(0.,78.1974181429173,0.));
#473=CARTESIAN_POINT('',(-1.5,79.0987090714587,1.83697019872103E-16));
#474=CARTESIAN_POINT('Origin',(0.,26.5966090433377,0.));
#475=CARTESIAN_POINT('',(6.,26.5966090433377,7.34788079488412E-16));
#476=CARTESIAN_POINT('',(-7.34788079488412E-16,26.5966090433377,6.));
#477=CARTESIAN_POINT('Origin',(0.,26.5966090433377,0.));
#478=CARTESIAN_POINT('',(-8.42723051616653E-16,25.6036721948037,6.88135593220339));
#479=CARTESIAN_POINT('Origin',(-8.57252759403147E-16,26.5966090433377,7.));
#480=CARTESIAN_POINT('Origin',(0.,25.6036721948037,0.));
#481=CARTESIAN_POINT('Origin',(0.,26.5966090433377,0.));
#482=CARTESIAN_POINT('Origin',(0.,100.,0.));
#483=CARTESIAN_POINT('',(6.,100.,7.34788079488412E-16));
#484=CARTESIAN_POINT('Origin',(0.,-31.9866650201696,0.));
#485=CARTESIAN_POINT('',(-2.55706251661967E-15,22.1245685639948,-20.88));
#486=CARTESIAN_POINT('Origin',(0.,22.1245685639948,0.));
#487=CARTESIAN_POINT('Origin',(0.,100.,0.));
#488=CARTESIAN_POINT('',(6.,23.5,7.34788079488412E-16));
#489=CARTESIAN_POINT('Origin',(0.,23.5,0.));
#490=CARTESIAN_POINT('',(6.,24.43038480885,-7.34788079488412E-16));
#491=CARTESIAN_POINT('',(6.,100.,7.34788079488412E-16));
#492=CARTESIAN_POINT('Origin',(0.,24.43038480885,0.));
#493=CARTESIAN_POINT('Origin',(0.,23.5,0.));
#494=CARTESIAN_POINT('Origin',(4.99999999999999,15.,-19.2));
#495=CARTESIAN_POINT('',(4.35315977193579,15.,-18.7));
#496=CARTESIAN_POINT('',(-4.35315977193579,15.,-18.7));
#497=CARTESIAN_POINT('Origin',(0.,15.,0.));
#498=CARTESIAN_POINT('',(4.99999999999999,15.,-18.7));
#499=CARTESIAN_POINT('Origin',(-2.77555756156289E-15,7.5,-18.7));
#500=CARTESIAN_POINT('',(4.35315977193579,0.,-18.7));
#501=CARTESIAN_POINT('',(4.35315977193579,0.,-18.7));
#502=CARTESIAN_POINT('',(-4.35315977193579,0.,-18.7));
#503=CARTESIAN_POINT('',(-1.38777878078145E-15,0.,-18.7));
#504=CARTESIAN_POINT('',(-4.35315977193579,0.,-18.7));
#505=CARTESIAN_POINT('Origin',(0.,0.,0.));
#506=CARTESIAN_POINT('',(19.2,20.,-2.35132185436292E-15));
#507=CARTESIAN_POINT('Origin',(0.,20.,0.));
#508=CARTESIAN_POINT('',(19.2,0.,-2.35132185436292E-15));
#509=CARTESIAN_POINT('',(19.2,0.,-2.35132185436292E-15));
#510=CARTESIAN_POINT('Origin',(0.,0.,0.));
#511=CARTESIAN_POINT('Origin',(0.,0.,0.));
#512=CARTESIAN_POINT('Origin',(0.,21.6369562484249,0.));
#513=CARTESIAN_POINT('',(-17.2,21.6369562484249,2.10639249453345E-15));
#514=CARTESIAN_POINT('',(-2.10639249453345E-15,21.6369562484249,17.2));
#515=CARTESIAN_POINT('Origin',(0.,21.6369562484249,0.));
#516=CARTESIAN_POINT('',(-2.06392309177403E-15,22.1129041307269,16.8532110091743));
#517=CARTESIAN_POINT('Origin',(-2.04516015457608E-15,21.6369562484249,16.7));
#518=CARTESIAN_POINT('Origin',(0.,22.1129041307269,0.));
#519=CARTESIAN_POINT('Origin',(0.,21.6369562484249,0.));
#520=CARTESIAN_POINT('Origin',(0.,-30.2413629224966,0.));
#521=CARTESIAN_POINT('Origin',(0.,0.,0.));
#522=CARTESIAN_POINT('',(-17.2,0.,2.10639249453345E-15));
#523=CARTESIAN_POINT('',(-17.2,0.,2.10639249453345E-15));
#524=CARTESIAN_POINT('Origin',(0.,0.,0.));
#525=CARTESIAN_POINT('Origin',(0.,21.6580924124072,0.));
#526=CARTESIAN_POINT('',(-2.59625121419239E-15,21.6580924124072,-21.2));
#527=CARTESIAN_POINT('Origin',(-2.53501887423502E-15,21.6580924124072,-20.7));
#528=CARTESIAN_POINT('',(-21.2,21.6580924124072,2.59625121419239E-15));
#529=CARTESIAN_POINT('Origin',(0.,21.6580924124072,0.));
#530=CARTESIAN_POINT('Origin',(0.,21.6580924124072,0.));
#531=CARTESIAN_POINT('Origin',(0.,20.,0.));
#532=CARTESIAN_POINT('',(-21.2,20.,2.59625121419239E-15));
#533=CARTESIAN_POINT('',(-21.2,20.,2.59625121419239E-15));
#534=CARTESIAN_POINT('Origin',(0.,20.,0.));
#535=CARTESIAN_POINT('Origin',(0.,20.,0.));
#536=CARTESIAN_POINT('Origin',(0.,0.,0.));
#537=UNCERTAINTY_MEASURE_WITH_UNIT(LENGTH_MEASURE(0.01),#541,
'DISTANCE_ACCURACY_VALUE',
'Maximum model space distance between geometric entities at asserted c
onnectivities');
#538=UNCERTAINTY_MEASURE_WITH_UNIT(LENGTH_MEASURE(0.01),#541,
'DISTANCE_ACCURACY_VALUE',
'Maximum model space distance between geometric entities at asserted c
onnectivities');
#539=(
GEOMETRIC_REPRESENTATION_CONTEXT(3)
GLOBAL_UNCERTAINTY_ASSIGNED_CONTEXT((#537))
GLOBAL_UNIT_ASSIGNED_CONTEXT((#541,#543,#544))
REPRESENTATION_CONTEXT('','3D')
);
#540=(
GEOMETRIC_REPRESENTATION_CONTEXT(3)
GLOBAL_UNCERTAINTY_ASSIGNED_CONTEXT((#538))
GLOBAL_UNIT_ASSIGNED_CONTEXT((#541,#543,#544))
REPRESENTATION_CONTEXT('','3D')
);
#541=(
LENGTH_UNIT()
NAMED_UNIT(*)
SI_UNIT(.MILLI.,.METRE.)
);
#542=(
LENGTH_UNIT()
NAMED_UNIT(*)
SI_UNIT(.CENTI.,.METRE.)
);
#543=(
NAMED_UNIT(*)
PLANE_ANGLE_UNIT()
SI_UNIT($,.RADIAN.)
);
#544=(
NAMED_UNIT(*)
SI_UNIT($,.STERADIAN.)
SOLID_ANGLE_UNIT()
);
#545=SHAPE_DEFINITION_REPRESENTATION(#546,#547);
#546=PRODUCT_DEFINITION_SHAPE('',$,#549);
#547=SHAPE_REPRESENTATION('',(#308),#539);
#548=PRODUCT_DEFINITION_CONTEXT('part definition',#553,'design');
#549=PRODUCT_DEFINITION('48070','48070',#550,#548);
#550=PRODUCT_DEFINITION_FORMATION('',$,#555);
#551=PRODUCT_RELATED_PRODUCT_CATEGORY('48070','48070',(#555));
#552=APPLICATION_PROTOCOL_DEFINITION('international standard',
'automotive_design',2009,#553);
#553=APPLICATION_CONTEXT(
'Core Data for Automotive Mechanical Design Process');
#554=PRODUCT_CONTEXT('part definition',#553,'mechanical');
#555=PRODUCT('48070','48070',$,(#554));
#556=PRESENTATION_STYLE_ASSIGNMENT((#557));
#557=SURFACE_STYLE_USAGE(.BOTH.,#560);
#558=SURFACE_STYLE_RENDERING_WITH_PROPERTIES($,#564,(#559));
#559=SURFACE_STYLE_TRANSPARENT(0.);
#560=SURFACE_SIDE_STYLE('',(#561,#558));
#561=SURFACE_STYLE_FILL_AREA(#562);
#562=FILL_AREA_STYLE('',(#563));
#563=FILL_AREA_STYLE_COLOUR('',#564);
#564=COLOUR_RGB('',0.956862745098039,0.956862745098039,0.956862745098039);
ENDSEC;
END-ISO-10303-21;
