ISO-10303-21;
HEADER;
/* Generated by software containing ST-Developer
 * from STEP Tools, Inc. (www.steptools.com) 
 */

FILE_DESCRIPTION(
/* description */ (''),
/* implementation_level */ '2;1');

FILE_NAME(
/* name */ '50073.iam.step',
/* time_stamp */ '2022-07-20T08:10:56+02:00',
/* author */ ('Abt. Technik'),
/* organization */ (''),
/* preprocessor_version */ 'ST-DEVELOPER v19.2',
/* originating_system */ 'Autodesk Inventor 2023',
/* authorisation */ '');

FILE_SCHEMA (('AUTOMOTIVE_DESIGN { 1 0 10303 214 3 1 1 }'));
ENDSEC;

DATA;
#10=MECHANICAL_DESIGN_GEOMETRIC_PRESENTATION_REPRESENTATION('',(#27,#28),
#556);
#11=ITEM_DEFINED_TRANSFORMATION($,$,#340,#374);
#12=ITEM_DEFINED_TRANSFORMATION($,$,#361,#375);
#13=ITEM_DEFINED_TRANSFORMATION($,$,#361,#376);
#14=(
REPRESENTATION_RELATIONSHIP($,$,#571,#570)
REPRESENTATION_RELATIONSHIP_WITH_TRANSFORMATION(#11)
SHAPE_REPRESENTATION_RELATIONSHIP()
);
#15=(
REPRESENTATION_RELATIONSHIP($,$,#572,#570)
REPRESENTATION_RELATIONSHIP_WITH_TRANSFORMATION(#12)
SHAPE_REPRESENTATION_RELATIONSHIP()
);
#16=(
REPRESENTATION_RELATIONSHIP($,$,#572,#570)
REPRESENTATION_RELATIONSHIP_WITH_TRANSFORMATION(#13)
SHAPE_REPRESENTATION_RELATIONSHIP()
);
#17=CONTEXT_DEPENDENT_SHAPE_REPRESENTATION(#14,#567);
#18=CONTEXT_DEPENDENT_SHAPE_REPRESENTATION(#15,#568);
#19=CONTEXT_DEPENDENT_SHAPE_REPRESENTATION(#16,#569);
#20=NEXT_ASSEMBLY_USAGE_OCCURRENCE('50073 Stift:1','50073 Stift:1',
'50073 Stift:1',#574,#575,'50073 Stift:1');
#21=NEXT_ASSEMBLY_USAGE_OCCURRENCE('50073 Lasche:2','50073 Lasche:2',
'50073 Lasche:2',#574,#576,'50073 Lasche:2');
#22=NEXT_ASSEMBLY_USAGE_OCCURRENCE('50073 Lasche:3','50073 Lasche:3',
'50073 Lasche:3',#574,#576,'50073 Lasche:3');
#23=SHAPE_REPRESENTATION_RELATIONSHIP('SRR','None',#571,#25);
#24=SHAPE_REPRESENTATION_RELATIONSHIP('SRR','None',#572,#26);
#25=ADVANCED_BREP_SHAPE_REPRESENTATION('',(#29),#554);
#26=ADVANCED_BREP_SHAPE_REPRESENTATION('',(#30),#555);
#27=STYLED_ITEM('',(#303),#29);
#28=STYLED_ITEM('',(#304),#30);
#29=MANIFOLD_SOLID_BREP('Volumenk\X\F6rper1',#275);
#30=MANIFOLD_SOLID_BREP('Volumenk\X\F6rper1',#276);
#31=TOROIDAL_SURFACE('',#357,8.,1.5);
#32=FACE_BOUND('',#72,.T.);
#33=FACE_BOUND('',#75,.T.);
#34=PLANE('',#347);
#35=PLANE('',#354);
#36=PLANE('',#355);
#37=PLANE('',#360);
#38=PLANE('',#362);
#39=PLANE('',#363);
#40=PLANE('',#364);
#41=PLANE('',#368);
#42=PLANE('',#372);
#43=PLANE('',#373);
#44=CYLINDRICAL_SURFACE('',#345,5.5);
#45=CYLINDRICAL_SURFACE('',#352,5.5);
#46=CYLINDRICAL_SURFACE('',#365,5.5);
#47=CYLINDRICAL_SURFACE('',#369,9.5);
#48=FACE_OUTER_BOUND('',#65,.T.);
#49=FACE_OUTER_BOUND('',#66,.T.);
#50=FACE_OUTER_BOUND('',#67,.T.);
#51=FACE_OUTER_BOUND('',#68,.T.);
#52=FACE_OUTER_BOUND('',#69,.T.);
#53=FACE_OUTER_BOUND('',#70,.T.);
#54=FACE_OUTER_BOUND('',#71,.T.);
#55=FACE_OUTER_BOUND('',#73,.T.);
#56=FACE_OUTER_BOUND('',#74,.T.);
#57=FACE_OUTER_BOUND('',#76,.T.);
#58=FACE_OUTER_BOUND('',#77,.T.);
#59=FACE_OUTER_BOUND('',#78,.T.);
#60=FACE_OUTER_BOUND('',#79,.T.);
#61=FACE_OUTER_BOUND('',#80,.T.);
#62=FACE_OUTER_BOUND('',#81,.T.);
#63=FACE_OUTER_BOUND('',#82,.T.);
#64=FACE_OUTER_BOUND('',#83,.T.);
#65=EDGE_LOOP('',(#190,#191,#192,#193,#194));
#66=EDGE_LOOP('',(#195,#196,#197,#198,#199));
#67=EDGE_LOOP('',(#200));
#68=EDGE_LOOP('',(#201,#202,#203,#204,#205));
#69=EDGE_LOOP('',(#206,#207,#208,#209,#210));
#70=EDGE_LOOP('',(#211));
#71=EDGE_LOOP('',(#212));
#72=EDGE_LOOP('',(#213));
#73=EDGE_LOOP('',(#214,#215,#216,#217));
#74=EDGE_LOOP('',(#218));
#75=EDGE_LOOP('',(#219));
#76=EDGE_LOOP('',(#220,#221,#222,#223));
#77=EDGE_LOOP('',(#224,#225,#226,#227));
#78=EDGE_LOOP('',(#228,#229,#230,#231));
#79=EDGE_LOOP('',(#232,#233,#234,#235));
#80=EDGE_LOOP('',(#236,#237,#238,#239));
#81=EDGE_LOOP('',(#240,#241,#242,#243));
#82=EDGE_LOOP('',(#244,#245,#246,#247,#248,#249));
#83=EDGE_LOOP('',(#250,#251,#252,#253,#254,#255));
#84=LINE('',#477,#102);
#85=LINE('',#483,#103);
#86=LINE('',#492,#104);
#87=LINE('',#497,#105);
#88=LINE('',#511,#106);
#89=LINE('',#513,#107);
#90=LINE('',#515,#108);
#91=LINE('',#516,#109);
#92=LINE('',#519,#110);
#93=LINE('',#521,#111);
#94=LINE('',#522,#112);
#95=LINE('',#525,#113);
#96=LINE('',#527,#114);
#97=LINE('',#528,#115);
#98=LINE('',#534,#116);
#99=LINE('',#537,#117);
#100=LINE('',#539,#118);
#101=LINE('',#540,#119);
#102=VECTOR('',#385,5.);
#103=VECTOR('',#392,5.5);
#104=VECTOR('',#403,5.);
#105=VECTOR('',#410,5.5);
#106=VECTOR('',#429,10.);
#107=VECTOR('',#430,10.);
#108=VECTOR('',#431,10.);
#109=VECTOR('',#432,10.);
#110=VECTOR('',#435,10.);
#111=VECTOR('',#436,10.);
#112=VECTOR('',#437,10.);
#113=VECTOR('',#440,10.);
#114=VECTOR('',#441,10.);
#115=VECTOR('',#442,10.);
#116=VECTOR('',#449,10.);
#117=VECTOR('',#452,10.);
#118=VECTOR('',#453,10.);
#119=VECTOR('',#454,10.);
#120=CIRCLE('',#342,4.5);
#121=CIRCLE('',#343,5.5);
#122=CIRCLE('',#344,5.5);
#123=CIRCLE('',#346,5.5);
#124=CIRCLE('',#349,5.5);
#125=CIRCLE('',#350,5.5);
#126=CIRCLE('',#351,4.5);
#127=CIRCLE('',#353,5.5);
#128=CIRCLE('',#356,8.);
#129=CIRCLE('',#358,8.);
#130=CIRCLE('',#359,1.5);
#131=CIRCLE('',#366,5.5);
#132=CIRCLE('',#367,5.5);
#133=CIRCLE('',#370,9.5);
#134=CIRCLE('',#371,9.5);
#135=VERTEX_POINT('',#474);
#136=VERTEX_POINT('',#476);
#137=VERTEX_POINT('',#478);
#138=VERTEX_POINT('',#482);
#139=VERTEX_POINT('',#487);
#140=VERTEX_POINT('',#488);
#141=VERTEX_POINT('',#491);
#142=VERTEX_POINT('',#495);
#143=VERTEX_POINT('',#500);
#144=VERTEX_POINT('',#503);
#145=VERTEX_POINT('',#509);
#146=VERTEX_POINT('',#510);
#147=VERTEX_POINT('',#512);
#148=VERTEX_POINT('',#514);
#149=VERTEX_POINT('',#518);
#150=VERTEX_POINT('',#520);
#151=VERTEX_POINT('',#524);
#152=VERTEX_POINT('',#526);
#153=VERTEX_POINT('',#530);
#154=VERTEX_POINT('',#532);
#155=VERTEX_POINT('',#536);
#156=VERTEX_POINT('',#538);
#157=EDGE_CURVE('',#135,#135,#120,.T.);
#158=EDGE_CURVE('',#135,#136,#84,.T.);
#159=EDGE_CURVE('',#136,#137,#121,.T.);
#160=EDGE_CURVE('',#137,#136,#122,.T.);
#161=EDGE_CURVE('',#137,#138,#85,.T.);
#162=EDGE_CURVE('',#138,#138,#123,.T.);
#163=EDGE_CURVE('',#139,#140,#124,.T.);
#164=EDGE_CURVE('',#140,#139,#125,.T.);
#165=EDGE_CURVE('',#139,#141,#86,.T.);
#166=EDGE_CURVE('',#141,#141,#126,.T.);
#167=EDGE_CURVE('',#142,#142,#127,.T.);
#168=EDGE_CURVE('',#142,#140,#87,.T.);
#169=EDGE_CURVE('',#143,#143,#128,.T.);
#170=EDGE_CURVE('',#144,#144,#129,.T.);
#171=EDGE_CURVE('',#144,#143,#130,.T.);
#172=EDGE_CURVE('',#145,#146,#88,.T.);
#173=EDGE_CURVE('',#146,#147,#89,.T.);
#174=EDGE_CURVE('',#148,#147,#90,.T.);
#175=EDGE_CURVE('',#145,#148,#91,.T.);
#176=EDGE_CURVE('',#149,#145,#92,.T.);
#177=EDGE_CURVE('',#150,#148,#93,.T.);
#178=EDGE_CURVE('',#149,#150,#94,.T.);
#179=EDGE_CURVE('',#151,#149,#95,.T.);
#180=EDGE_CURVE('',#152,#150,#96,.T.);
#181=EDGE_CURVE('',#151,#152,#97,.T.);
#182=EDGE_CURVE('',#153,#151,#131,.T.);
#183=EDGE_CURVE('',#154,#152,#132,.T.);
#184=EDGE_CURVE('',#153,#154,#98,.T.);
#185=EDGE_CURVE('',#155,#153,#99,.T.);
#186=EDGE_CURVE('',#156,#154,#100,.T.);
#187=EDGE_CURVE('',#155,#156,#101,.T.);
#188=EDGE_CURVE('',#146,#155,#133,.T.);
#189=EDGE_CURVE('',#147,#156,#134,.T.);
#190=ORIENTED_EDGE('',*,*,#157,.T.);
#191=ORIENTED_EDGE('',*,*,#158,.T.);
#192=ORIENTED_EDGE('',*,*,#159,.T.);
#193=ORIENTED_EDGE('',*,*,#160,.T.);
#194=ORIENTED_EDGE('',*,*,#158,.F.);
#195=ORIENTED_EDGE('',*,*,#159,.F.);
#196=ORIENTED_EDGE('',*,*,#160,.F.);
#197=ORIENTED_EDGE('',*,*,#161,.T.);
#198=ORIENTED_EDGE('',*,*,#162,.F.);
#199=ORIENTED_EDGE('',*,*,#161,.F.);
#200=ORIENTED_EDGE('',*,*,#157,.F.);
#201=ORIENTED_EDGE('',*,*,#163,.T.);
#202=ORIENTED_EDGE('',*,*,#164,.T.);
#203=ORIENTED_EDGE('',*,*,#165,.T.);
#204=ORIENTED_EDGE('',*,*,#166,.T.);
#205=ORIENTED_EDGE('',*,*,#165,.F.);
#206=ORIENTED_EDGE('',*,*,#167,.F.);
#207=ORIENTED_EDGE('',*,*,#168,.T.);
#208=ORIENTED_EDGE('',*,*,#163,.F.);
#209=ORIENTED_EDGE('',*,*,#164,.F.);
#210=ORIENTED_EDGE('',*,*,#168,.F.);
#211=ORIENTED_EDGE('',*,*,#166,.F.);
#212=ORIENTED_EDGE('',*,*,#169,.F.);
#213=ORIENTED_EDGE('',*,*,#167,.T.);
#214=ORIENTED_EDGE('',*,*,#170,.T.);
#215=ORIENTED_EDGE('',*,*,#171,.T.);
#216=ORIENTED_EDGE('',*,*,#169,.T.);
#217=ORIENTED_EDGE('',*,*,#171,.F.);
#218=ORIENTED_EDGE('',*,*,#170,.F.);
#219=ORIENTED_EDGE('',*,*,#162,.T.);
#220=ORIENTED_EDGE('',*,*,#172,.T.);
#221=ORIENTED_EDGE('',*,*,#173,.T.);
#222=ORIENTED_EDGE('',*,*,#174,.F.);
#223=ORIENTED_EDGE('',*,*,#175,.F.);
#224=ORIENTED_EDGE('',*,*,#176,.T.);
#225=ORIENTED_EDGE('',*,*,#175,.T.);
#226=ORIENTED_EDGE('',*,*,#177,.F.);
#227=ORIENTED_EDGE('',*,*,#178,.F.);
#228=ORIENTED_EDGE('',*,*,#179,.T.);
#229=ORIENTED_EDGE('',*,*,#178,.T.);
#230=ORIENTED_EDGE('',*,*,#180,.F.);
#231=ORIENTED_EDGE('',*,*,#181,.F.);
#232=ORIENTED_EDGE('',*,*,#182,.T.);
#233=ORIENTED_EDGE('',*,*,#181,.T.);
#234=ORIENTED_EDGE('',*,*,#183,.F.);
#235=ORIENTED_EDGE('',*,*,#184,.F.);
#236=ORIENTED_EDGE('',*,*,#185,.T.);
#237=ORIENTED_EDGE('',*,*,#184,.T.);
#238=ORIENTED_EDGE('',*,*,#186,.F.);
#239=ORIENTED_EDGE('',*,*,#187,.F.);
#240=ORIENTED_EDGE('',*,*,#188,.T.);
#241=ORIENTED_EDGE('',*,*,#187,.T.);
#242=ORIENTED_EDGE('',*,*,#189,.F.);
#243=ORIENTED_EDGE('',*,*,#173,.F.);
#244=ORIENTED_EDGE('',*,*,#189,.T.);
#245=ORIENTED_EDGE('',*,*,#186,.T.);
#246=ORIENTED_EDGE('',*,*,#183,.T.);
#247=ORIENTED_EDGE('',*,*,#180,.T.);
#248=ORIENTED_EDGE('',*,*,#177,.T.);
#249=ORIENTED_EDGE('',*,*,#174,.T.);
#250=ORIENTED_EDGE('',*,*,#188,.F.);
#251=ORIENTED_EDGE('',*,*,#172,.F.);
#252=ORIENTED_EDGE('',*,*,#176,.F.);
#253=ORIENTED_EDGE('',*,*,#179,.F.);
#254=ORIENTED_EDGE('',*,*,#182,.F.);
#255=ORIENTED_EDGE('',*,*,#185,.F.);
#256=CONICAL_SURFACE('',#341,5.,0.78539816339745);
#257=CONICAL_SURFACE('',#348,5.,0.785398163397448);
#258=ADVANCED_FACE('',(#48),#256,.T.);
#259=ADVANCED_FACE('',(#49),#44,.T.);
#260=ADVANCED_FACE('',(#50),#34,.T.);
#261=ADVANCED_FACE('',(#51),#257,.T.);
#262=ADVANCED_FACE('',(#52),#45,.T.);
#263=ADVANCED_FACE('',(#53),#35,.F.);
#264=ADVANCED_FACE('',(#54,#32),#36,.F.);
#265=ADVANCED_FACE('',(#55),#31,.T.);
#266=ADVANCED_FACE('',(#56,#33),#37,.T.);
#267=ADVANCED_FACE('',(#57),#38,.T.);
#268=ADVANCED_FACE('',(#58),#39,.T.);
#269=ADVANCED_FACE('',(#59),#40,.T.);
#270=ADVANCED_FACE('',(#60),#46,.F.);
#271=ADVANCED_FACE('',(#61),#41,.T.);
#272=ADVANCED_FACE('',(#62),#47,.T.);
#273=ADVANCED_FACE('',(#63),#42,.T.);
#274=ADVANCED_FACE('',(#64),#43,.F.);
#275=CLOSED_SHELL('',(#258,#259,#260,#261,#262,#263,#264,#265,#266));
#276=CLOSED_SHELL('',(#267,#268,#269,#270,#271,#272,#273,#274));
#277=DERIVED_UNIT_ELEMENT(#282,1.);
#278=DERIVED_UNIT_ELEMENT(#558,-3.);
#279=DERIVED_UNIT_ELEMENT(#282,1.);
#280=DERIVED_UNIT_ELEMENT(#558,-3.);
#281=DIMENSIONAL_EXPONENTS(0.,1.,0.,0.,0.,0.,0.);
#282=(
CONVERSION_BASED_UNIT('gram',#284)
MASS_UNIT()
NAMED_UNIT(#281)
);
#283=(
MASS_UNIT()
NAMED_UNIT(*)
SI_UNIT(.KILO.,.GRAM.)
);
#284=MASS_MEASURE_WITH_UNIT(MASS_MEASURE(0.001),#283);
#285=DERIVED_UNIT((#277,#278));
#286=DERIVED_UNIT((#279,#280));
#287=MEASURE_REPRESENTATION_ITEM('density measure',
POSITIVE_RATIO_MEASURE(1.),#285);
#288=MEASURE_REPRESENTATION_ITEM('density measure',
POSITIVE_RATIO_MEASURE(7.85),#286);
#289=PROPERTY_DEFINITION_REPRESENTATION(#299,#293);
#290=PROPERTY_DEFINITION_REPRESENTATION(#300,#294);
#291=PROPERTY_DEFINITION_REPRESENTATION(#301,#295);
#292=PROPERTY_DEFINITION_REPRESENTATION(#302,#296);
#293=REPRESENTATION('material name',(#297),#554);
#294=REPRESENTATION('density',(#287),#554);
#295=REPRESENTATION('material name',(#298),#555);
#296=REPRESENTATION('density',(#288),#555);
#297=DESCRIPTIVE_REPRESENTATION_ITEM('Generisch','Generisch');
#298=DESCRIPTIVE_REPRESENTATION_ITEM('Stahl, Guss','Stahl, Guss');
#299=PROPERTY_DEFINITION('material property','material name',#575);
#300=PROPERTY_DEFINITION('material property','density of part',#575);
#301=PROPERTY_DEFINITION('material property','material name',#576);
#302=PROPERTY_DEFINITION('material property','density of part',#576);
#303=PRESENTATION_STYLE_ASSIGNMENT((#305));
#304=PRESENTATION_STYLE_ASSIGNMENT((#306));
#305=SURFACE_STYLE_USAGE(.BOTH.,#311);
#306=SURFACE_STYLE_USAGE(.BOTH.,#312);
#307=SURFACE_STYLE_RENDERING_WITH_PROPERTIES($,#319,(#309));
#308=SURFACE_STYLE_RENDERING_WITH_PROPERTIES($,#320,(#310));
#309=SURFACE_STYLE_TRANSPARENT(0.);
#310=SURFACE_STYLE_TRANSPARENT(0.);
#311=SURFACE_SIDE_STYLE('',(#313,#307));
#312=SURFACE_SIDE_STYLE('',(#314,#308));
#313=SURFACE_STYLE_FILL_AREA(#315);
#314=SURFACE_STYLE_FILL_AREA(#316);
#315=FILL_AREA_STYLE('',(#317));
#316=FILL_AREA_STYLE('',(#318));
#317=FILL_AREA_STYLE_COLOUR('',#319);
#318=FILL_AREA_STYLE_COLOUR('',#320);
#319=COLOUR_RGB('',0.749019607843137,0.749019607843137,0.749019607843137);
#320=COLOUR_RGB('',0.411764705882353,0.411764705882353,0.411764705882353);
#321=DATE_TIME_ROLE('creation_date');
#322=DATE_TIME_ROLE('creation_date');
#323=DATE_TIME_ROLE('creation_date');
#324=APPLIED_DATE_AND_TIME_ASSIGNMENT(#327,#321,(#574));
#325=APPLIED_DATE_AND_TIME_ASSIGNMENT(#328,#322,(#575));
#326=APPLIED_DATE_AND_TIME_ASSIGNMENT(#329,#323,(#576));
#327=DATE_AND_TIME(#330,#333);
#328=DATE_AND_TIME(#331,#334);
#329=DATE_AND_TIME(#332,#335);
#330=CALENDAR_DATE(2021,8,12);
#331=CALENDAR_DATE(2021,8,12);
#332=CALENDAR_DATE(2021,8,12);
#333=LOCAL_TIME(0,0,0.,#336);
#334=LOCAL_TIME(0,0,0.,#337);
#335=LOCAL_TIME(0,0,0.,#338);
#336=COORDINATED_UNIVERSAL_TIME_OFFSET(0,0,.BEHIND.);
#337=COORDINATED_UNIVERSAL_TIME_OFFSET(0,0,.BEHIND.);
#338=COORDINATED_UNIVERSAL_TIME_OFFSET(0,0,.BEHIND.);
#339=AXIS2_PLACEMENT_3D('placement',#471,#377,#378);
#340=AXIS2_PLACEMENT_3D('placement',#472,#379,#380);
#341=AXIS2_PLACEMENT_3D('',#473,#381,#382);
#342=AXIS2_PLACEMENT_3D('',#475,#383,#384);
#343=AXIS2_PLACEMENT_3D('',#479,#386,#387);
#344=AXIS2_PLACEMENT_3D('',#480,#388,#389);
#345=AXIS2_PLACEMENT_3D('',#481,#390,#391);
#346=AXIS2_PLACEMENT_3D('',#484,#393,#394);
#347=AXIS2_PLACEMENT_3D('',#485,#395,#396);
#348=AXIS2_PLACEMENT_3D('',#486,#397,#398);
#349=AXIS2_PLACEMENT_3D('',#489,#399,#400);
#350=AXIS2_PLACEMENT_3D('',#490,#401,#402);
#351=AXIS2_PLACEMENT_3D('',#493,#404,#405);
#352=AXIS2_PLACEMENT_3D('',#494,#406,#407);
#353=AXIS2_PLACEMENT_3D('',#496,#408,#409);
#354=AXIS2_PLACEMENT_3D('',#498,#411,#412);
#355=AXIS2_PLACEMENT_3D('',#499,#413,#414);
#356=AXIS2_PLACEMENT_3D('',#501,#415,#416);
#357=AXIS2_PLACEMENT_3D('',#502,#417,#418);
#358=AXIS2_PLACEMENT_3D('',#504,#419,#420);
#359=AXIS2_PLACEMENT_3D('',#505,#421,#422);
#360=AXIS2_PLACEMENT_3D('',#506,#423,#424);
#361=AXIS2_PLACEMENT_3D('placement',#507,#425,#426);
#362=AXIS2_PLACEMENT_3D('',#508,#427,#428);
#363=AXIS2_PLACEMENT_3D('',#517,#433,#434);
#364=AXIS2_PLACEMENT_3D('',#523,#438,#439);
#365=AXIS2_PLACEMENT_3D('',#529,#443,#444);
#366=AXIS2_PLACEMENT_3D('',#531,#445,#446);
#367=AXIS2_PLACEMENT_3D('',#533,#447,#448);
#368=AXIS2_PLACEMENT_3D('',#535,#450,#451);
#369=AXIS2_PLACEMENT_3D('',#541,#455,#456);
#370=AXIS2_PLACEMENT_3D('',#542,#457,#458);
#371=AXIS2_PLACEMENT_3D('',#543,#459,#460);
#372=AXIS2_PLACEMENT_3D('',#544,#461,#462);
#373=AXIS2_PLACEMENT_3D('',#545,#463,#464);
#374=AXIS2_PLACEMENT_3D('',#546,#465,#466);
#375=AXIS2_PLACEMENT_3D('',#547,#467,#468);
#376=AXIS2_PLACEMENT_3D('',#548,#469,#470);
#377=DIRECTION('axis',(0.,0.,1.));
#378=DIRECTION('refdir',(1.,0.,0.));
#379=DIRECTION('axis',(0.,0.,1.));
#380=DIRECTION('refdir',(1.,0.,0.));
#381=DIRECTION('center_axis',(0.,-1.,0.));
#382=DIRECTION('ref_axis',(-1.,0.,0.));
#383=DIRECTION('center_axis',(0.,-1.,0.));
#384=DIRECTION('ref_axis',(-1.,0.,0.));
#385=DIRECTION('',(0.707106781186549,-0.707106781186546,-8.65956056235495E-17));
#386=DIRECTION('center_axis',(0.,1.,0.));
#387=DIRECTION('ref_axis',(-1.,0.,0.));
#388=DIRECTION('center_axis',(0.,1.,0.));
#389=DIRECTION('ref_axis',(-1.,0.,0.));
#390=DIRECTION('center_axis',(0.,1.,0.));
#391=DIRECTION('ref_axis',(1.,0.,0.));
#392=DIRECTION('',(0.,-1.,0.));
#393=DIRECTION('center_axis',(0.,-1.,0.));
#394=DIRECTION('ref_axis',(1.,0.,0.));
#395=DIRECTION('center_axis',(0.,1.,0.));
#396=DIRECTION('ref_axis',(0.,0.,1.));
#397=DIRECTION('center_axis',(0.,1.,0.));
#398=DIRECTION('ref_axis',(1.,0.,0.));
#399=DIRECTION('center_axis',(0.,-1.,0.));
#400=DIRECTION('ref_axis',(1.,0.,0.));
#401=DIRECTION('center_axis',(0.,-1.,0.));
#402=DIRECTION('ref_axis',(1.,0.,0.));
#403=DIRECTION('',(0.707106781186547,-0.707106781186548,-8.65956056235493E-17));
#404=DIRECTION('center_axis',(0.,1.,0.));
#405=DIRECTION('ref_axis',(1.,0.,0.));
#406=DIRECTION('center_axis',(0.,1.,0.));
#407=DIRECTION('ref_axis',(-1.,0.,0.));
#408=DIRECTION('center_axis',(0.,1.,0.));
#409=DIRECTION('ref_axis',(-1.,0.,0.));
#410=DIRECTION('',(0.,-1.,0.));
#411=DIRECTION('center_axis',(0.,1.,0.));
#412=DIRECTION('ref_axis',(0.,0.,1.));
#413=DIRECTION('center_axis',(0.,1.,0.));
#414=DIRECTION('ref_axis',(0.,0.,1.));
#415=DIRECTION('center_axis',(0.,1.,0.));
#416=DIRECTION('ref_axis',(-1.,0.,-1.22464679914735E-16));
#417=DIRECTION('center_axis',(0.,1.,0.));
#418=DIRECTION('ref_axis',(0.,0.,1.));
#419=DIRECTION('center_axis',(0.,-1.,0.));
#420=DIRECTION('ref_axis',(-1.,0.,-1.22464679914735E-16));
#421=DIRECTION('center_axis',(-1.,0.,1.22464679914735E-16));
#422=DIRECTION('ref_axis',(-1.22464679914735E-16,0.,-1.));
#423=DIRECTION('center_axis',(0.,1.,0.));
#424=DIRECTION('ref_axis',(0.,0.,1.));
#425=DIRECTION('axis',(0.,0.,1.));
#426=DIRECTION('refdir',(1.,0.,0.));
#427=DIRECTION('center_axis',(1.,0.,-1.22464679914735E-16));
#428=DIRECTION('ref_axis',(-1.22464679914735E-16,0.,-1.));
#429=DIRECTION('',(-1.22464679914735E-16,0.,-1.));
#430=DIRECTION('',(0.,1.,0.));
#431=DIRECTION('',(-1.22464679914735E-16,0.,-1.));
#432=DIRECTION('',(0.,1.,0.));
#433=DIRECTION('center_axis',(1.67623530633294E-16,0.,1.));
#434=DIRECTION('ref_axis',(1.,0.,-1.67623530633294E-16));
#435=DIRECTION('',(1.,0.,-1.67623530633294E-16));
#436=DIRECTION('',(1.,0.,-1.67623530633294E-16));
#437=DIRECTION('',(0.,1.,0.));
#438=DIRECTION('center_axis',(-1.,0.,2.88657986402541E-16));
#439=DIRECTION('ref_axis',(2.88657986402541E-16,0.,1.));
#440=DIRECTION('',(2.88657986402541E-16,0.,1.));
#441=DIRECTION('',(2.88657986402541E-16,0.,1.));
#442=DIRECTION('',(0.,1.,0.));
#443=DIRECTION('center_axis',(0.,1.,0.));
#444=DIRECTION('ref_axis',(-1.,0.,-8.07434927000114E-16));
#445=DIRECTION('center_axis',(0.,-1.,0.));
#446=DIRECTION('ref_axis',(-1.,0.,-8.07434927000114E-16));
#447=DIRECTION('center_axis',(0.,-1.,0.));
#448=DIRECTION('ref_axis',(-1.,0.,-8.07434927000114E-16));
#449=DIRECTION('',(0.,1.,0.));
#450=DIRECTION('center_axis',(0.866025403784437,0.,-0.500000000000002));
#451=DIRECTION('ref_axis',(-0.500000000000002,0.,-0.866025403784437));
#452=DIRECTION('',(-0.500000000000002,0.,-0.866025403784437));
#453=DIRECTION('',(-0.500000000000002,0.,-0.866025403784437));
#454=DIRECTION('',(0.,1.,0.));
#455=DIRECTION('center_axis',(0.,1.,0.));
#456=DIRECTION('ref_axis',(-0.866025403784439,0.,-0.5));
#457=DIRECTION('center_axis',(0.,1.,0.));
#458=DIRECTION('ref_axis',(1.,0.,4.67462326157961E-16));
#459=DIRECTION('center_axis',(0.,1.,0.));
#460=DIRECTION('ref_axis',(1.,0.,4.67462326157961E-16));
#461=DIRECTION('center_axis',(0.,1.,0.));
#462=DIRECTION('ref_axis',(0.,0.,1.));
#463=DIRECTION('center_axis',(0.,1.,0.));
#464=DIRECTION('ref_axis',(0.,0.,1.));
#465=DIRECTION('',(0.,0.,1.));
#466=DIRECTION('',(1.,0.,0.));
#467=DIRECTION('',(-0.5,0.,0.866025403784439));
#468=DIRECTION('',(0.866025403784439,0.,0.5));
#469=DIRECTION('',(0.5,0.,-0.866025403784439));
#470=DIRECTION('',(0.866025403784439,0.,0.5));
#471=CARTESIAN_POINT('',(0.,0.,0.));
#472=CARTESIAN_POINT('',(0.,0.,0.));
#473=CARTESIAN_POINT('Origin',(0.,119.5,0.));
#474=CARTESIAN_POINT('',(4.5,120.,5.51091059616309E-16));
#475=CARTESIAN_POINT('Origin',(0.,120.,0.));
#476=CARTESIAN_POINT('',(5.5,119.,-6.73555739531044E-16));
#477=CARTESIAN_POINT('',(5.,119.5,-6.12323399573677E-16));
#478=CARTESIAN_POINT('',(-5.5,119.,6.73555739531044E-16));
#479=CARTESIAN_POINT('Origin',(0.,119.,0.));
#480=CARTESIAN_POINT('Origin',(0.,119.,0.));
#481=CARTESIAN_POINT('Origin',(0.,61.5,0.));
#482=CARTESIAN_POINT('',(-5.5,61.5,6.73555739531044E-16));
#483=CARTESIAN_POINT('',(-5.5,61.5,6.73555739531044E-16));
#484=CARTESIAN_POINT('Origin',(0.,61.5,0.));
#485=CARTESIAN_POINT('Origin',(0.,120.,0.));
#486=CARTESIAN_POINT('Origin',(0.,0.5,0.));
#487=CARTESIAN_POINT('',(-5.5,1.,-6.73555739531044E-16));
#488=CARTESIAN_POINT('',(5.5,1.,-6.73555739531044E-16));
#489=CARTESIAN_POINT('Origin',(0.,1.,0.));
#490=CARTESIAN_POINT('Origin',(0.,1.,0.));
#491=CARTESIAN_POINT('',(-4.5,0.,5.51091059616309E-16));
#492=CARTESIAN_POINT('',(-5.,0.5,6.12323399573677E-16));
#493=CARTESIAN_POINT('Origin',(0.,0.,0.));
#494=CARTESIAN_POINT('Origin',(0.,0.,0.));
#495=CARTESIAN_POINT('',(5.5,58.5,-6.73555739531044E-16));
#496=CARTESIAN_POINT('Origin',(0.,58.5,0.));
#497=CARTESIAN_POINT('',(5.5,0.,-6.73555739531044E-16));
#498=CARTESIAN_POINT('Origin',(0.,0.,0.));
#499=CARTESIAN_POINT('Origin',(0.,58.5,0.));
#500=CARTESIAN_POINT('',(-9.79717439317883E-16,58.5,-8.));
#501=CARTESIAN_POINT('Origin',(0.,58.5,0.));
#502=CARTESIAN_POINT('Origin',(0.,60.,0.));
#503=CARTESIAN_POINT('',(-9.79717439317883E-16,61.5,-8.));
#504=CARTESIAN_POINT('Origin',(0.,61.5,0.));
#505=CARTESIAN_POINT('Origin',(-9.79717439317883E-16,60.,-8.));
#506=CARTESIAN_POINT('Origin',(0.,61.5,0.));
#507=CARTESIAN_POINT('',(0.,0.,0.));
#508=CARTESIAN_POINT('Origin',(0.,0.,0.));
#509=CARTESIAN_POINT('',(0.,0.,0.));
#510=CARTESIAN_POINT('',(-3.06161699786838E-15,0.,-25.));
#511=CARTESIAN_POINT('',(0.,0.,0.));
#512=CARTESIAN_POINT('',(-3.06161699786838E-15,58.5,-25.));
#513=CARTESIAN_POINT('',(-3.06161699786838E-15,0.,-25.));
#514=CARTESIAN_POINT('',(0.,58.5,0.));
#515=CARTESIAN_POINT('',(0.,58.5,0.));
#516=CARTESIAN_POINT('',(0.,0.,0.));
#517=CARTESIAN_POINT('Origin',(-4.,0.,6.70494122533176E-16));
#518=CARTESIAN_POINT('',(-4.,0.,6.70494122533176E-16));
#519=CARTESIAN_POINT('',(-4.,0.,6.70494122533176E-16));
#520=CARTESIAN_POINT('',(-4.,58.5,0.));
#521=CARTESIAN_POINT('',(-4.,58.5,6.70494122533176E-16));
#522=CARTESIAN_POINT('',(-4.,0.,6.70494122533176E-16));
#523=CARTESIAN_POINT('Origin',(-4.00000000000001,0.,-25.));
#524=CARTESIAN_POINT('',(-4.00000000000001,0.,-25.));
#525=CARTESIAN_POINT('',(-4.00000000000001,0.,-25.));
#526=CARTESIAN_POINT('',(-4.00000000000001,58.5,-25.));
#527=CARTESIAN_POINT('',(-4.00000000000001,58.5,-25.));
#528=CARTESIAN_POINT('',(-4.00000000000001,0.,-25.));
#529=CARTESIAN_POINT('Origin',(-9.5,0.,-25.));
#530=CARTESIAN_POINT('',(-6.75000000000001,0.,-20.2368602791856));
#531=CARTESIAN_POINT('Origin',(-9.5,0.,-25.));
#532=CARTESIAN_POINT('',(-6.75000000000001,58.5,-20.2368602791856));
#533=CARTESIAN_POINT('Origin',(-9.5,58.5,-25.));
#534=CARTESIAN_POINT('',(-6.75000000000001,0.,-20.2368602791856));
#535=CARTESIAN_POINT('Origin',(-4.75,0.,-16.7727586640478));
#536=CARTESIAN_POINT('',(-4.75,0.,-16.7727586640478));
#537=CARTESIAN_POINT('',(-4.75,0.,-16.7727586640478));
#538=CARTESIAN_POINT('',(-4.75,58.5,-16.7727586640478));
#539=CARTESIAN_POINT('',(-4.75,58.5,-16.7727586640478));
#540=CARTESIAN_POINT('',(-4.75,0.,-16.7727586640478));
#541=CARTESIAN_POINT('Origin',(-9.5,0.,-25.));
#542=CARTESIAN_POINT('Origin',(-9.5,0.,-25.));
#543=CARTESIAN_POINT('Origin',(-9.5,58.5,-25.));
#544=CARTESIAN_POINT('Origin',(-9.5,58.5,-17.25));
#545=CARTESIAN_POINT('Origin',(-9.5,0.,-17.25));
#546=CARTESIAN_POINT('',(204.159270559024,-80.4921584518923,-8.88178419700125E-15));
#547=CARTESIAN_POINT('',(199.886511894977,-80.4921584518923,26.400635094611));
#548=CARTESIAN_POINT('',(224.886511894977,39.5078415481077,-16.900635094611));
#549=UNCERTAINTY_MEASURE_WITH_UNIT(LENGTH_MEASURE(0.01),#557,
'DISTANCE_ACCURACY_VALUE',
'Maximum model space distance between geometric entities at asserted c
onnectivities');
#550=UNCERTAINTY_MEASURE_WITH_UNIT(LENGTH_MEASURE(0.01),#557,
'DISTANCE_ACCURACY_VALUE',
'Maximum model space distance between geometric entities at asserted c
onnectivities');
#551=UNCERTAINTY_MEASURE_WITH_UNIT(LENGTH_MEASURE(0.01),#557,
'DISTANCE_ACCURACY_VALUE',
'Maximum model space distance between geometric entities at asserted c
onnectivities');
#552=UNCERTAINTY_MEASURE_WITH_UNIT(LENGTH_MEASURE(0.01),#557,
'DISTANCE_ACCURACY_VALUE',
'Maximum model space distance between geometric entities at asserted c
onnectivities');
#553=(
GEOMETRIC_REPRESENTATION_CONTEXT(3)
GLOBAL_UNCERTAINTY_ASSIGNED_CONTEXT((#549))
GLOBAL_UNIT_ASSIGNED_CONTEXT((#557,#559,#560))
REPRESENTATION_CONTEXT('','3D')
);
#554=(
GEOMETRIC_REPRESENTATION_CONTEXT(3)
GLOBAL_UNCERTAINTY_ASSIGNED_CONTEXT((#550))
GLOBAL_UNIT_ASSIGNED_CONTEXT((#557,#559,#560))
REPRESENTATION_CONTEXT('','3D')
);
#555=(
GEOMETRIC_REPRESENTATION_CONTEXT(3)
GLOBAL_UNCERTAINTY_ASSIGNED_CONTEXT((#551))
GLOBAL_UNIT_ASSIGNED_CONTEXT((#557,#559,#560))
REPRESENTATION_CONTEXT('','3D')
);
#556=(
GEOMETRIC_REPRESENTATION_CONTEXT(3)
GLOBAL_UNCERTAINTY_ASSIGNED_CONTEXT((#552))
GLOBAL_UNIT_ASSIGNED_CONTEXT((#557,#559,#560))
REPRESENTATION_CONTEXT('','3D')
);
#557=(
LENGTH_UNIT()
NAMED_UNIT(*)
SI_UNIT(.MILLI.,.METRE.)
);
#558=(
LENGTH_UNIT()
NAMED_UNIT(*)
SI_UNIT(.CENTI.,.METRE.)
);
#559=(
NAMED_UNIT(*)
PLANE_ANGLE_UNIT()
SI_UNIT($,.RADIAN.)
);
#560=(
NAMED_UNIT(*)
SI_UNIT($,.STERADIAN.)
SOLID_ANGLE_UNIT()
);
#561=SHAPE_DEFINITION_REPRESENTATION(#564,#570);
#562=SHAPE_DEFINITION_REPRESENTATION(#565,#571);
#563=SHAPE_DEFINITION_REPRESENTATION(#566,#572);
#564=PRODUCT_DEFINITION_SHAPE('',$,#574);
#565=PRODUCT_DEFINITION_SHAPE('',$,#575);
#566=PRODUCT_DEFINITION_SHAPE('',$,#576);
#567=PRODUCT_DEFINITION_SHAPE($,$,#20);
#568=PRODUCT_DEFINITION_SHAPE($,$,#21);
#569=PRODUCT_DEFINITION_SHAPE($,$,#22);
#570=SHAPE_REPRESENTATION('',(#339,#374,#375,#376),#553);
#571=SHAPE_REPRESENTATION('',(#340),#554);
#572=SHAPE_REPRESENTATION('',(#361),#555);
#573=PRODUCT_DEFINITION_CONTEXT('part definition',#584,'design');
#574=PRODUCT_DEFINITION('50073','50073',#577,#573);
#575=PRODUCT_DEFINITION('50073 Stift','50073 Stift',#578,#573);
#576=PRODUCT_DEFINITION('50073 Lasche','50073 Lasche',#579,#573);
#577=PRODUCT_DEFINITION_FORMATION('',$,#586);
#578=PRODUCT_DEFINITION_FORMATION('',$,#587);
#579=PRODUCT_DEFINITION_FORMATION('',$,#588);
#580=PRODUCT_RELATED_PRODUCT_CATEGORY('50073','50073',(#586));
#581=PRODUCT_RELATED_PRODUCT_CATEGORY('50073 Stift','50073 Stift',(#587));
#582=PRODUCT_RELATED_PRODUCT_CATEGORY('50073 Lasche','50073 Lasche',(#588));
#583=APPLICATION_PROTOCOL_DEFINITION('international standard',
'automotive_design',2009,#584);
#584=APPLICATION_CONTEXT(
'Core Data for Automotive Mechanical Design Process');
#585=PRODUCT_CONTEXT('part definition',#584,'mechanical');
#586=PRODUCT('50073','50073',$,(#585));
#587=PRODUCT('50073 Stift','50073 Stift',$,(#585));
#588=PRODUCT('50073 Lasche','50073 Lasche',$,(#585));
ENDSEC;
END-ISO-10303-21;
