ISO-10303-21;
HEADER;
/* Generated by software containing ST-Developer
 * from STEP Tools, Inc. (www.steptools.com) 
 */

FILE_DESCRIPTION(
/* description */ (''),
/* implementation_level */ '2;1');

FILE_NAME(
/* name */ '50508.ipt.step',
/* time_stamp */ '2022-07-20T08:04:37+02:00',
/* author */ ('Abt. Technik'),
/* organization */ (''),
/* preprocessor_version */ 'ST-DEVELOPER v19.2',
/* originating_system */ 'Autodesk Inventor 2023',
/* authorisation */ '');

FILE_SCHEMA (('AUTOMOTIVE_DESIGN { 1 0 10303 214 3 1 1 }'));
ENDSEC;

DATA;
#10=MECHANICAL_DESIGN_GEOMETRIC_PRESENTATION_REPRESENTATION('',(#13),#310);
#11=SHAPE_REPRESENTATION_RELATIONSHIP('SRR','None',#317,#12);
#12=ADVANCED_BREP_SHAPE_REPRESENTATION('',(#14),#309);
#13=STYLED_ITEM('',(#326),#14);
#14=MANIFOLD_SOLID_BREP('Volumenk\X\F6rper1',#160);
#15=TOROIDAL_SURFACE('',#195,20.2,1.);
#16=FACE_BOUND('',#38,.T.);
#17=FACE_BOUND('',#41,.T.);
#18=FACE_BOUND('',#45,.T.);
#19=PLANE('',#189);
#20=PLANE('',#193);
#21=PLANE('',#201);
#22=CYLINDRICAL_SURFACE('',#186,3.4);
#23=CYLINDRICAL_SURFACE('',#199,21.2);
#24=CYLINDRICAL_SURFACE('',#206,18.);
#25=FACE_OUTER_BOUND('',#35,.T.);
#26=FACE_OUTER_BOUND('',#36,.T.);
#27=FACE_OUTER_BOUND('',#37,.T.);
#28=FACE_OUTER_BOUND('',#39,.T.);
#29=FACE_OUTER_BOUND('',#40,.T.);
#30=FACE_OUTER_BOUND('',#42,.T.);
#31=FACE_OUTER_BOUND('',#43,.T.);
#32=FACE_OUTER_BOUND('',#44,.T.);
#33=FACE_OUTER_BOUND('',#46,.T.);
#34=FACE_OUTER_BOUND('',#47,.T.);
#35=EDGE_LOOP('',(#107,#108,#109,#110));
#36=EDGE_LOOP('',(#111,#112,#113,#114,#115));
#37=EDGE_LOOP('',(#116));
#38=EDGE_LOOP('',(#117));
#39=EDGE_LOOP('',(#118,#119,#120,#121,#122));
#40=EDGE_LOOP('',(#123));
#41=EDGE_LOOP('',(#124));
#42=EDGE_LOOP('',(#125,#126,#127,#128,#129));
#43=EDGE_LOOP('',(#130,#131,#132,#133,#134));
#44=EDGE_LOOP('',(#135));
#45=EDGE_LOOP('',(#136));
#46=EDGE_LOOP('',(#137,#138,#139,#140,#141));
#47=EDGE_LOOP('',(#142,#143,#144,#145,#146));
#48=LINE('',#268,#54);
#49=LINE('',#275,#55);
#50=LINE('',#282,#56);
#51=LINE('',#294,#57);
#52=LINE('',#304,#58);
#53=LINE('',#306,#59);
#54=VECTOR('',#213,10.15);
#55=VECTOR('',#222,3.4);
#56=VECTOR('',#231,3.9);
#57=VECTOR('',#246,21.2);
#58=VECTOR('',#259,17.5);
#59=VECTOR('',#262,18.);
#60=CIRCLE('',#184,16.9);
#61=CIRCLE('',#185,3.4);
#62=CIRCLE('',#187,3.4);
#63=CIRCLE('',#188,3.4);
#64=CIRCLE('',#190,17.);
#65=CIRCLE('',#192,4.4);
#66=CIRCLE('',#194,20.2);
#67=CIRCLE('',#196,1.);
#68=CIRCLE('',#197,21.2);
#69=CIRCLE('',#198,21.2);
#70=CIRCLE('',#200,21.2);
#71=CIRCLE('',#202,18.);
#72=CIRCLE('',#204,18.);
#73=CIRCLE('',#205,18.);
#74=VERTEX_POINT('',#265);
#75=VERTEX_POINT('',#267);
#76=VERTEX_POINT('',#271);
#77=VERTEX_POINT('',#272);
#78=VERTEX_POINT('',#277);
#79=VERTEX_POINT('',#280);
#80=VERTEX_POINT('',#284);
#81=VERTEX_POINT('',#287);
#82=VERTEX_POINT('',#289);
#83=VERTEX_POINT('',#293);
#84=VERTEX_POINT('',#297);
#85=VERTEX_POINT('',#300);
#86=VERTEX_POINT('',#301);
#87=EDGE_CURVE('',#74,#74,#60,.T.);
#88=EDGE_CURVE('',#74,#75,#48,.T.);
#89=EDGE_CURVE('',#75,#75,#61,.T.);
#90=EDGE_CURVE('',#76,#77,#62,.T.);
#91=EDGE_CURVE('',#77,#76,#63,.T.);
#92=EDGE_CURVE('',#77,#75,#49,.T.);
#93=EDGE_CURVE('',#78,#78,#64,.T.);
#94=EDGE_CURVE('',#79,#79,#65,.T.);
#95=EDGE_CURVE('',#79,#76,#50,.T.);
#96=EDGE_CURVE('',#80,#80,#66,.T.);
#97=EDGE_CURVE('',#80,#81,#67,.T.);
#98=EDGE_CURVE('',#81,#82,#68,.T.);
#99=EDGE_CURVE('',#82,#81,#69,.T.);
#100=EDGE_CURVE('',#82,#83,#51,.T.);
#101=EDGE_CURVE('',#83,#83,#70,.T.);
#102=EDGE_CURVE('',#84,#84,#71,.T.);
#103=EDGE_CURVE('',#85,#86,#72,.T.);
#104=EDGE_CURVE('',#86,#85,#73,.T.);
#105=EDGE_CURVE('',#85,#78,#52,.T.);
#106=EDGE_CURVE('',#84,#86,#53,.T.);
#107=ORIENTED_EDGE('',*,*,#87,.T.);
#108=ORIENTED_EDGE('',*,*,#88,.T.);
#109=ORIENTED_EDGE('',*,*,#89,.T.);
#110=ORIENTED_EDGE('',*,*,#88,.F.);
#111=ORIENTED_EDGE('',*,*,#90,.F.);
#112=ORIENTED_EDGE('',*,*,#91,.F.);
#113=ORIENTED_EDGE('',*,*,#92,.T.);
#114=ORIENTED_EDGE('',*,*,#89,.F.);
#115=ORIENTED_EDGE('',*,*,#92,.F.);
#116=ORIENTED_EDGE('',*,*,#93,.F.);
#117=ORIENTED_EDGE('',*,*,#87,.F.);
#118=ORIENTED_EDGE('',*,*,#94,.T.);
#119=ORIENTED_EDGE('',*,*,#95,.T.);
#120=ORIENTED_EDGE('',*,*,#90,.T.);
#121=ORIENTED_EDGE('',*,*,#91,.T.);
#122=ORIENTED_EDGE('',*,*,#95,.F.);
#123=ORIENTED_EDGE('',*,*,#96,.F.);
#124=ORIENTED_EDGE('',*,*,#94,.F.);
#125=ORIENTED_EDGE('',*,*,#96,.T.);
#126=ORIENTED_EDGE('',*,*,#97,.T.);
#127=ORIENTED_EDGE('',*,*,#98,.T.);
#128=ORIENTED_EDGE('',*,*,#99,.T.);
#129=ORIENTED_EDGE('',*,*,#97,.F.);
#130=ORIENTED_EDGE('',*,*,#99,.F.);
#131=ORIENTED_EDGE('',*,*,#100,.T.);
#132=ORIENTED_EDGE('',*,*,#101,.T.);
#133=ORIENTED_EDGE('',*,*,#100,.F.);
#134=ORIENTED_EDGE('',*,*,#98,.F.);
#135=ORIENTED_EDGE('',*,*,#101,.F.);
#136=ORIENTED_EDGE('',*,*,#102,.T.);
#137=ORIENTED_EDGE('',*,*,#103,.T.);
#138=ORIENTED_EDGE('',*,*,#104,.T.);
#139=ORIENTED_EDGE('',*,*,#105,.T.);
#140=ORIENTED_EDGE('',*,*,#93,.T.);
#141=ORIENTED_EDGE('',*,*,#105,.F.);
#142=ORIENTED_EDGE('',*,*,#102,.F.);
#143=ORIENTED_EDGE('',*,*,#106,.T.);
#144=ORIENTED_EDGE('',*,*,#103,.F.);
#145=ORIENTED_EDGE('',*,*,#104,.F.);
#146=ORIENTED_EDGE('',*,*,#106,.F.);
#147=CONICAL_SURFACE('',#183,10.15,0.785398163397448);
#148=CONICAL_SURFACE('',#191,3.9,0.785398163397448);
#149=CONICAL_SURFACE('',#203,17.5,0.785398163397449);
#150=ADVANCED_FACE('',(#25),#147,.F.);
#151=ADVANCED_FACE('',(#26),#22,.F.);
#152=ADVANCED_FACE('',(#27,#16),#19,.F.);
#153=ADVANCED_FACE('',(#28),#148,.F.);
#154=ADVANCED_FACE('',(#29,#17),#20,.T.);
#155=ADVANCED_FACE('',(#30),#15,.T.);
#156=ADVANCED_FACE('',(#31),#23,.T.);
#157=ADVANCED_FACE('',(#32,#18),#21,.F.);
#158=ADVANCED_FACE('',(#33),#149,.T.);
#159=ADVANCED_FACE('',(#34),#24,.T.);
#160=CLOSED_SHELL('',(#150,#151,#152,#153,#154,#155,#156,#157,#158,#159));
#161=DERIVED_UNIT_ELEMENT(#164,1.);
#162=DERIVED_UNIT_ELEMENT(#312,-3.);
#163=DIMENSIONAL_EXPONENTS(0.,1.,0.,0.,0.,0.,0.);
#164=(
CONVERSION_BASED_UNIT('gram',#166)
MASS_UNIT()
NAMED_UNIT(#163)
);
#165=(
MASS_UNIT()
NAMED_UNIT(*)
SI_UNIT(.KILO.,.GRAM.)
);
#166=MASS_MEASURE_WITH_UNIT(MASS_MEASURE(0.001),#165);
#167=DERIVED_UNIT((#161,#162));
#168=MEASURE_REPRESENTATION_ITEM('density measure',
POSITIVE_RATIO_MEASURE(7.85),#167);
#169=PROPERTY_DEFINITION_REPRESENTATION(#174,#171);
#170=PROPERTY_DEFINITION_REPRESENTATION(#175,#172);
#171=REPRESENTATION('material name',(#173),#309);
#172=REPRESENTATION('density',(#168),#309);
#173=DESCRIPTIVE_REPRESENTATION_ITEM('Stahl, Guss','Stahl, Guss');
#174=PROPERTY_DEFINITION('material property','material name',#319);
#175=PROPERTY_DEFINITION('material property','density of part',#319);
#176=DATE_TIME_ROLE('creation_date');
#177=APPLIED_DATE_AND_TIME_ASSIGNMENT(#178,#176,(#319));
#178=DATE_AND_TIME(#179,#180);
#179=CALENDAR_DATE(2021,10,5);
#180=LOCAL_TIME(0,0,0.,#181);
#181=COORDINATED_UNIVERSAL_TIME_OFFSET(0,0,.BEHIND.);
#182=AXIS2_PLACEMENT_3D('placement',#263,#207,#208);
#183=AXIS2_PLACEMENT_3D('',#264,#209,#210);
#184=AXIS2_PLACEMENT_3D('',#266,#211,#212);
#185=AXIS2_PLACEMENT_3D('',#269,#214,#215);
#186=AXIS2_PLACEMENT_3D('',#270,#216,#217);
#187=AXIS2_PLACEMENT_3D('',#273,#218,#219);
#188=AXIS2_PLACEMENT_3D('',#274,#220,#221);
#189=AXIS2_PLACEMENT_3D('',#276,#223,#224);
#190=AXIS2_PLACEMENT_3D('',#278,#225,#226);
#191=AXIS2_PLACEMENT_3D('',#279,#227,#228);
#192=AXIS2_PLACEMENT_3D('',#281,#229,#230);
#193=AXIS2_PLACEMENT_3D('',#283,#232,#233);
#194=AXIS2_PLACEMENT_3D('',#285,#234,#235);
#195=AXIS2_PLACEMENT_3D('',#286,#236,#237);
#196=AXIS2_PLACEMENT_3D('',#288,#238,#239);
#197=AXIS2_PLACEMENT_3D('',#290,#240,#241);
#198=AXIS2_PLACEMENT_3D('',#291,#242,#243);
#199=AXIS2_PLACEMENT_3D('',#292,#244,#245);
#200=AXIS2_PLACEMENT_3D('',#295,#247,#248);
#201=AXIS2_PLACEMENT_3D('',#296,#249,#250);
#202=AXIS2_PLACEMENT_3D('',#298,#251,#252);
#203=AXIS2_PLACEMENT_3D('',#299,#253,#254);
#204=AXIS2_PLACEMENT_3D('',#302,#255,#256);
#205=AXIS2_PLACEMENT_3D('',#303,#257,#258);
#206=AXIS2_PLACEMENT_3D('',#305,#260,#261);
#207=DIRECTION('axis',(0.,0.,1.));
#208=DIRECTION('refdir',(1.,0.,0.));
#209=DIRECTION('center_axis',(0.,-1.,0.));
#210=DIRECTION('ref_axis',(1.,0.,0.));
#211=DIRECTION('center_axis',(0.,-1.,0.));
#212=DIRECTION('ref_axis',(1.,0.,0.));
#213=DIRECTION('',(0.707106781186547,0.707106781186547,8.65956056235493E-17));
#214=DIRECTION('center_axis',(0.,1.,0.));
#215=DIRECTION('ref_axis',(1.,0.,0.));
#216=DIRECTION('center_axis',(0.,-1.,0.));
#217=DIRECTION('ref_axis',(1.,0.,0.));
#218=DIRECTION('center_axis',(0.,-1.,0.));
#219=DIRECTION('ref_axis',(-1.,0.,0.));
#220=DIRECTION('center_axis',(0.,-1.,0.));
#221=DIRECTION('ref_axis',(-1.,0.,0.));
#222=DIRECTION('',(0.,-1.,0.));
#223=DIRECTION('center_axis',(0.,1.,0.));
#224=DIRECTION('ref_axis',(0.,0.,1.));
#225=DIRECTION('center_axis',(0.,1.,0.));
#226=DIRECTION('ref_axis',(1.,0.,0.));
#227=DIRECTION('center_axis',(0.,1.,0.));
#228=DIRECTION('ref_axis',(-1.,0.,0.));
#229=DIRECTION('center_axis',(0.,1.,0.));
#230=DIRECTION('ref_axis',(-1.,0.,0.));
#231=DIRECTION('',(-0.707106781186547,-0.707106781186548,8.65956056235493E-17));
#232=DIRECTION('center_axis',(0.,1.,0.));
#233=DIRECTION('ref_axis',(0.,0.,1.));
#234=DIRECTION('center_axis',(0.,-1.,0.));
#235=DIRECTION('ref_axis',(-1.,0.,-1.22464679914735E-16));
#236=DIRECTION('center_axis',(0.,1.,0.));
#237=DIRECTION('ref_axis',(0.,0.,1.));
#238=DIRECTION('center_axis',(-1.,0.,1.22464679914735E-16));
#239=DIRECTION('ref_axis',(-1.22464679914735E-16,0.,-1.));
#240=DIRECTION('center_axis',(0.,1.,0.));
#241=DIRECTION('ref_axis',(-1.,0.,-1.22464679914735E-16));
#242=DIRECTION('center_axis',(0.,1.,0.));
#243=DIRECTION('ref_axis',(-1.,0.,-1.22464679914735E-16));
#244=DIRECTION('center_axis',(0.,1.,0.));
#245=DIRECTION('ref_axis',(1.,0.,0.));
#246=DIRECTION('',(0.,-1.,0.));
#247=DIRECTION('center_axis',(0.,1.,0.));
#248=DIRECTION('ref_axis',(1.,0.,0.));
#249=DIRECTION('center_axis',(0.,1.,0.));
#250=DIRECTION('ref_axis',(0.,0.,1.));
#251=DIRECTION('center_axis',(0.,1.,0.));
#252=DIRECTION('ref_axis',(-1.,0.,0.));
#253=DIRECTION('center_axis',(0.,1.,0.));
#254=DIRECTION('ref_axis',(1.,0.,0.));
#255=DIRECTION('center_axis',(0.,-1.,0.));
#256=DIRECTION('ref_axis',(1.,0.,0.));
#257=DIRECTION('center_axis',(0.,-1.,0.));
#258=DIRECTION('ref_axis',(1.,0.,0.));
#259=DIRECTION('',(0.707106781186548,-0.707106781186547,-8.65956056235494E-17));
#260=DIRECTION('center_axis',(0.,1.,0.));
#261=DIRECTION('ref_axis',(-1.,0.,0.));
#262=DIRECTION('',(0.,-1.,0.));
#263=CARTESIAN_POINT('',(0.,0.,0.));
#264=CARTESIAN_POINT('Origin',(0.,6.75,0.));
#265=CARTESIAN_POINT('',(-16.9,0.,-2.06965309055903E-15));
#266=CARTESIAN_POINT('Origin',(0.,0.,0.));
#267=CARTESIAN_POINT('',(-3.4,13.5,4.163799117101E-16));
#268=CARTESIAN_POINT('',(-10.15,6.75,-1.24301650113456E-15));
#269=CARTESIAN_POINT('Origin',(0.,13.5,0.));
#270=CARTESIAN_POINT('Origin',(0.,16.,0.));
#271=CARTESIAN_POINT('',(3.4,15.,4.163799117101E-16));
#272=CARTESIAN_POINT('',(-3.4,15.,-4.163799117101E-16));
#273=CARTESIAN_POINT('Origin',(0.,15.,0.));
#274=CARTESIAN_POINT('Origin',(0.,15.,0.));
#275=CARTESIAN_POINT('',(-3.4,16.,-4.163799117101E-16));
#276=CARTESIAN_POINT('Origin',(0.,0.,0.));
#277=CARTESIAN_POINT('',(-17.,0.,2.0818995585505E-15));
#278=CARTESIAN_POINT('Origin',(0.,0.,0.));
#279=CARTESIAN_POINT('Origin',(0.,15.5,0.));
#280=CARTESIAN_POINT('',(4.4,16.,-5.38844591624835E-16));
#281=CARTESIAN_POINT('Origin',(0.,16.,0.));
#282=CARTESIAN_POINT('',(3.9,15.5,-4.77612251667468E-16));
#283=CARTESIAN_POINT('Origin',(0.,16.,0.));
#284=CARTESIAN_POINT('',(-2.47378653427765E-15,16.,-20.2));
#285=CARTESIAN_POINT('Origin',(0.,16.,0.));
#286=CARTESIAN_POINT('Origin',(0.,15.,0.));
#287=CARTESIAN_POINT('',(-2.59625121419239E-15,15.,-21.2));
#288=CARTESIAN_POINT('Origin',(-2.47378653427765E-15,15.,-20.2));
#289=CARTESIAN_POINT('',(-21.2,15.,2.59625121419239E-15));
#290=CARTESIAN_POINT('Origin',(0.,15.,0.));
#291=CARTESIAN_POINT('Origin',(0.,15.,0.));
#292=CARTESIAN_POINT('Origin',(0.,8.,0.));
#293=CARTESIAN_POINT('',(-21.2,8.,2.59625121419239E-15));
#294=CARTESIAN_POINT('',(-21.2,8.,2.59625121419239E-15));
#295=CARTESIAN_POINT('Origin',(0.,8.,0.));
#296=CARTESIAN_POINT('Origin',(0.,8.,0.));
#297=CARTESIAN_POINT('',(18.,8.,-2.20436423846524E-15));
#298=CARTESIAN_POINT('Origin',(0.,8.,0.));
#299=CARTESIAN_POINT('Origin',(0.,0.5,0.));
#300=CARTESIAN_POINT('',(-18.,1.,-2.20436423846524E-15));
#301=CARTESIAN_POINT('',(18.,1.,-2.20436423846524E-15));
#302=CARTESIAN_POINT('Origin',(0.,1.,0.));
#303=CARTESIAN_POINT('Origin',(0.,1.,0.));
#304=CARTESIAN_POINT('',(-17.5,0.5,2.14313189850787E-15));
#305=CARTESIAN_POINT('Origin',(0.,0.,0.));
#306=CARTESIAN_POINT('',(18.,0.,-2.20436423846524E-15));
#307=UNCERTAINTY_MEASURE_WITH_UNIT(LENGTH_MEASURE(0.01),#311,
'DISTANCE_ACCURACY_VALUE',
'Maximum model space distance between geometric entities at asserted c
onnectivities');
#308=UNCERTAINTY_MEASURE_WITH_UNIT(LENGTH_MEASURE(0.01),#311,
'DISTANCE_ACCURACY_VALUE',
'Maximum model space distance between geometric entities at asserted c
onnectivities');
#309=(
GEOMETRIC_REPRESENTATION_CONTEXT(3)
GLOBAL_UNCERTAINTY_ASSIGNED_CONTEXT((#307))
GLOBAL_UNIT_ASSIGNED_CONTEXT((#311,#313,#314))
REPRESENTATION_CONTEXT('','3D')
);
#310=(
GEOMETRIC_REPRESENTATION_CONTEXT(3)
GLOBAL_UNCERTAINTY_ASSIGNED_CONTEXT((#308))
GLOBAL_UNIT_ASSIGNED_CONTEXT((#311,#313,#314))
REPRESENTATION_CONTEXT('','3D')
);
#311=(
LENGTH_UNIT()
NAMED_UNIT(*)
SI_UNIT(.MILLI.,.METRE.)
);
#312=(
LENGTH_UNIT()
NAMED_UNIT(*)
SI_UNIT(.CENTI.,.METRE.)
);
#313=(
NAMED_UNIT(*)
PLANE_ANGLE_UNIT()
SI_UNIT($,.RADIAN.)
);
#314=(
NAMED_UNIT(*)
SI_UNIT($,.STERADIAN.)
SOLID_ANGLE_UNIT()
);
#315=SHAPE_DEFINITION_REPRESENTATION(#316,#317);
#316=PRODUCT_DEFINITION_SHAPE('',$,#319);
#317=SHAPE_REPRESENTATION('',(#182),#309);
#318=PRODUCT_DEFINITION_CONTEXT('part definition',#323,'design');
#319=PRODUCT_DEFINITION('50508','50508',#320,#318);
#320=PRODUCT_DEFINITION_FORMATION('',$,#325);
#321=PRODUCT_RELATED_PRODUCT_CATEGORY('50508','50508',(#325));
#322=APPLICATION_PROTOCOL_DEFINITION('international standard',
'automotive_design',2009,#323);
#323=APPLICATION_CONTEXT(
'Core Data for Automotive Mechanical Design Process');
#324=PRODUCT_CONTEXT('part definition',#323,'mechanical');
#325=PRODUCT('50508','50508',$,(#324));
#326=PRESENTATION_STYLE_ASSIGNMENT((#327));
#327=SURFACE_STYLE_USAGE(.BOTH.,#330);
#328=SURFACE_STYLE_RENDERING_WITH_PROPERTIES($,#334,(#329));
#329=SURFACE_STYLE_TRANSPARENT(0.);
#330=SURFACE_SIDE_STYLE('',(#331,#328));
#331=SURFACE_STYLE_FILL_AREA(#332);
#332=FILL_AREA_STYLE('',(#333));
#333=FILL_AREA_STYLE_COLOUR('',#334);
#334=COLOUR_RGB('',0.0196078431372549,0.0196078431372549,0.0196078431372549);
ENDSEC;
END-ISO-10303-21;
