ISO-10303-21;
HEADER;
/* Generated by software containing ST-Developer
 * from STEP Tools, Inc. (www.steptools.com) 
 */

FILE_DESCRIPTION(
/* description */ (''),
/* implementation_level */ '2;1');

FILE_NAME(
/* name */ '50510.ipt.step',
/* time_stamp */ '2022-07-20T08:04:38+02:00',
/* author */ ('Abt. Technik'),
/* organization */ (''),
/* preprocessor_version */ 'ST-DEVELOPER v19.2',
/* originating_system */ 'Autodesk Inventor 2023',
/* authorisation */ '');

FILE_SCHEMA (('AUTOMOTIVE_DESIGN { 1 0 10303 214 3 1 1 }'));
ENDSEC;

DATA;
#10=MECHANICAL_DESIGN_GEOMETRIC_PRESENTATION_REPRESENTATION('',(#13),#211);
#11=SHAPE_REPRESENTATION_RELATIONSHIP('SRR','None',#218,#12);
#12=ADVANCED_BREP_SHAPE_REPRESENTATION('',(#14),#210);
#13=STYLED_ITEM('',(#227),#14);
#14=MANIFOLD_SOLID_BREP('Volumenk\X\F6rper1',#104);
#15=CONICAL_SURFACE('',#137,18.2,0.785398163397449);
#16=FACE_BOUND('',#39,.T.);
#17=PLANE('',#135);
#18=PLANE('',#142);
#19=LINE('',#192,#22);
#20=LINE('',#203,#23);
#21=LINE('',#206,#24);
#22=VECTOR('',#159,21.2);
#23=VECTOR('',#172,18.2);
#24=VECTOR('',#177,18.7);
#25=CYLINDRICAL_SURFACE('',#133,21.2);
#26=CYLINDRICAL_SURFACE('',#141,18.7);
#27=SPHERICAL_SURFACE('',#132,113.36);
#28=FACE_OUTER_BOUND('',#35,.T.);
#29=FACE_OUTER_BOUND('',#36,.T.);
#30=FACE_OUTER_BOUND('',#37,.T.);
#31=FACE_OUTER_BOUND('',#38,.T.);
#32=FACE_OUTER_BOUND('',#40,.T.);
#33=FACE_OUTER_BOUND('',#41,.T.);
#34=FACE_OUTER_BOUND('',#42,.T.);
#35=EDGE_LOOP('',(#72,#73,#74,#75,#76));
#36=EDGE_LOOP('',(#77));
#37=EDGE_LOOP('',(#78,#79,#80,#81,#82));
#38=EDGE_LOOP('',(#83));
#39=EDGE_LOOP('',(#84));
#40=EDGE_LOOP('',(#85,#86,#87,#88,#89));
#41=EDGE_LOOP('',(#90,#91,#92,#93,#94));
#42=EDGE_LOOP('',(#95));
#43=CIRCLE('',#128,20.3797792808829);
#44=CIRCLE('',#129,1.);
#45=CIRCLE('',#130,21.2);
#46=CIRCLE('',#131,21.2);
#47=CIRCLE('',#134,21.2);
#48=CIRCLE('',#136,18.7);
#49=CIRCLE('',#138,18.7);
#50=CIRCLE('',#139,18.7);
#51=CIRCLE('',#140,17.7);
#52=VERTEX_POINT('',#182);
#53=VERTEX_POINT('',#184);
#54=VERTEX_POINT('',#186);
#55=VERTEX_POINT('',#191);
#56=VERTEX_POINT('',#195);
#57=VERTEX_POINT('',#198);
#58=VERTEX_POINT('',#199);
#59=VERTEX_POINT('',#202);
#60=EDGE_CURVE('',#52,#52,#43,.T.);
#61=EDGE_CURVE('',#52,#53,#44,.T.);
#62=EDGE_CURVE('',#53,#54,#45,.T.);
#63=EDGE_CURVE('',#54,#53,#46,.T.);
#64=EDGE_CURVE('',#54,#55,#19,.T.);
#65=EDGE_CURVE('',#55,#55,#47,.T.);
#66=EDGE_CURVE('',#56,#56,#48,.T.);
#67=EDGE_CURVE('',#57,#58,#49,.T.);
#68=EDGE_CURVE('',#58,#57,#50,.T.);
#69=EDGE_CURVE('',#57,#59,#20,.T.);
#70=EDGE_CURVE('',#59,#59,#51,.T.);
#71=EDGE_CURVE('',#56,#58,#21,.T.);
#72=ORIENTED_EDGE('',*,*,#60,.T.);
#73=ORIENTED_EDGE('',*,*,#61,.T.);
#74=ORIENTED_EDGE('',*,*,#62,.T.);
#75=ORIENTED_EDGE('',*,*,#63,.T.);
#76=ORIENTED_EDGE('',*,*,#61,.F.);
#77=ORIENTED_EDGE('',*,*,#60,.F.);
#78=ORIENTED_EDGE('',*,*,#63,.F.);
#79=ORIENTED_EDGE('',*,*,#64,.T.);
#80=ORIENTED_EDGE('',*,*,#65,.T.);
#81=ORIENTED_EDGE('',*,*,#64,.F.);
#82=ORIENTED_EDGE('',*,*,#62,.F.);
#83=ORIENTED_EDGE('',*,*,#65,.F.);
#84=ORIENTED_EDGE('',*,*,#66,.T.);
#85=ORIENTED_EDGE('',*,*,#67,.T.);
#86=ORIENTED_EDGE('',*,*,#68,.T.);
#87=ORIENTED_EDGE('',*,*,#69,.T.);
#88=ORIENTED_EDGE('',*,*,#70,.T.);
#89=ORIENTED_EDGE('',*,*,#69,.F.);
#90=ORIENTED_EDGE('',*,*,#66,.F.);
#91=ORIENTED_EDGE('',*,*,#71,.T.);
#92=ORIENTED_EDGE('',*,*,#67,.F.);
#93=ORIENTED_EDGE('',*,*,#68,.F.);
#94=ORIENTED_EDGE('',*,*,#71,.F.);
#95=ORIENTED_EDGE('',*,*,#70,.F.);
#96=TOROIDAL_SURFACE('',#127,20.2,1.);
#97=ADVANCED_FACE('',(#28),#96,.T.);
#98=ADVANCED_FACE('',(#29),#27,.T.);
#99=ADVANCED_FACE('',(#30),#25,.T.);
#100=ADVANCED_FACE('',(#31,#16),#17,.F.);
#101=ADVANCED_FACE('',(#32),#15,.T.);
#102=ADVANCED_FACE('',(#33),#26,.T.);
#103=ADVANCED_FACE('',(#34),#18,.F.);
#104=CLOSED_SHELL('',(#97,#98,#99,#100,#101,#102,#103));
#105=DERIVED_UNIT_ELEMENT(#108,1.);
#106=DERIVED_UNIT_ELEMENT(#213,-3.);
#107=DIMENSIONAL_EXPONENTS(0.,1.,0.,0.,0.,0.,0.);
#108=(
CONVERSION_BASED_UNIT('gram',#110)
MASS_UNIT()
NAMED_UNIT(#107)
);
#109=(
MASS_UNIT()
NAMED_UNIT(*)
SI_UNIT(.KILO.,.GRAM.)
);
#110=MASS_MEASURE_WITH_UNIT(MASS_MEASURE(0.001),#109);
#111=DERIVED_UNIT((#105,#106));
#112=MEASURE_REPRESENTATION_ITEM('density measure',
POSITIVE_RATIO_MEASURE(7.85),#111);
#113=PROPERTY_DEFINITION_REPRESENTATION(#118,#115);
#114=PROPERTY_DEFINITION_REPRESENTATION(#119,#116);
#115=REPRESENTATION('material name',(#117),#210);
#116=REPRESENTATION('density',(#112),#210);
#117=DESCRIPTIVE_REPRESENTATION_ITEM('Stahl, Guss','Stahl, Guss');
#118=PROPERTY_DEFINITION('material property','material name',#220);
#119=PROPERTY_DEFINITION('material property','density of part',#220);
#120=DATE_TIME_ROLE('creation_date');
#121=APPLIED_DATE_AND_TIME_ASSIGNMENT(#122,#120,(#220));
#122=DATE_AND_TIME(#123,#124);
#123=CALENDAR_DATE(2021,10,5);
#124=LOCAL_TIME(0,0,0.,#125);
#125=COORDINATED_UNIVERSAL_TIME_OFFSET(0,0,.BEHIND.);
#126=AXIS2_PLACEMENT_3D('placement',#180,#143,#144);
#127=AXIS2_PLACEMENT_3D('',#181,#145,#146);
#128=AXIS2_PLACEMENT_3D('',#183,#147,#148);
#129=AXIS2_PLACEMENT_3D('',#185,#149,#150);
#130=AXIS2_PLACEMENT_3D('',#187,#151,#152);
#131=AXIS2_PLACEMENT_3D('',#188,#153,#154);
#132=AXIS2_PLACEMENT_3D('',#189,#155,#156);
#133=AXIS2_PLACEMENT_3D('',#190,#157,#158);
#134=AXIS2_PLACEMENT_3D('',#193,#160,#161);
#135=AXIS2_PLACEMENT_3D('',#194,#162,#163);
#136=AXIS2_PLACEMENT_3D('',#196,#164,#165);
#137=AXIS2_PLACEMENT_3D('',#197,#166,#167);
#138=AXIS2_PLACEMENT_3D('',#200,#168,#169);
#139=AXIS2_PLACEMENT_3D('',#201,#170,#171);
#140=AXIS2_PLACEMENT_3D('',#204,#173,#174);
#141=AXIS2_PLACEMENT_3D('',#205,#175,#176);
#142=AXIS2_PLACEMENT_3D('',#207,#178,#179);
#143=DIRECTION('axis',(0.,0.,1.));
#144=DIRECTION('refdir',(1.,0.,0.));
#145=DIRECTION('center_axis',(0.,1.,0.));
#146=DIRECTION('ref_axis',(0.,0.,1.));
#147=DIRECTION('center_axis',(0.,-1.,0.));
#148=DIRECTION('ref_axis',(-1.,0.,-1.22464679914735E-16));
#149=DIRECTION('center_axis',(-1.,0.,1.22464679914735E-16));
#150=DIRECTION('ref_axis',(-1.22464679914735E-16,0.,-1.));
#151=DIRECTION('center_axis',(0.,1.,0.));
#152=DIRECTION('ref_axis',(-1.,0.,-1.22464679914735E-16));
#153=DIRECTION('center_axis',(0.,1.,0.));
#154=DIRECTION('ref_axis',(-1.,0.,-1.22464679914735E-16));
#155=DIRECTION('center_axis',(6.12323399573677E-17,0.,1.));
#156=DIRECTION('ref_axis',(1.,0.,0.));
#157=DIRECTION('center_axis',(0.,1.,0.));
#158=DIRECTION('ref_axis',(1.,0.,0.));
#159=DIRECTION('',(0.,-1.,0.));
#160=DIRECTION('center_axis',(0.,1.,0.));
#161=DIRECTION('ref_axis',(1.,0.,0.));
#162=DIRECTION('center_axis',(0.,1.,0.));
#163=DIRECTION('ref_axis',(0.,0.,1.));
#164=DIRECTION('center_axis',(0.,1.,0.));
#165=DIRECTION('ref_axis',(-1.,0.,0.));
#166=DIRECTION('center_axis',(0.,1.,0.));
#167=DIRECTION('ref_axis',(1.,0.,0.));
#168=DIRECTION('center_axis',(0.,-1.,0.));
#169=DIRECTION('ref_axis',(1.,0.,0.));
#170=DIRECTION('center_axis',(0.,-1.,0.));
#171=DIRECTION('ref_axis',(1.,0.,0.));
#172=DIRECTION('',(0.707106781186548,-0.707106781186547,-8.65956056235494E-17));
#173=DIRECTION('center_axis',(0.,1.,0.));
#174=DIRECTION('ref_axis',(1.,0.,0.));
#175=DIRECTION('center_axis',(0.,1.,0.));
#176=DIRECTION('ref_axis',(-1.,0.,0.));
#177=DIRECTION('',(0.,-1.,0.));
#178=DIRECTION('center_axis',(0.,1.,0.));
#179=DIRECTION('ref_axis',(0.,0.,1.));
#180=CARTESIAN_POINT('',(0.,0.,0.));
#181=CARTESIAN_POINT('Origin',(0.,15.1693155683143,0.));
#182=CARTESIAN_POINT('',(-2.49580314636628E-15,16.1530225420444,-20.3797792808829));
#183=CARTESIAN_POINT('Origin',(0.,16.1530225420444,-1.97618907907646E-17));
#184=CARTESIAN_POINT('',(-2.59625121419239E-15,15.1693155683143,-21.2));
#185=CARTESIAN_POINT('Origin',(-2.47378653427765E-15,15.1693155683143,-20.2));
#186=CARTESIAN_POINT('',(-21.2,15.1693155683143,2.59625121419239E-15));
#187=CARTESIAN_POINT('Origin',(0.,15.1693155683143,0.));
#188=CARTESIAN_POINT('Origin',(0.,15.1693155683143,0.));
#189=CARTESIAN_POINT('Origin',(0.,-95.3599999999999,2.22044604925031E-15));
#190=CARTESIAN_POINT('Origin',(0.,8.,0.));
#191=CARTESIAN_POINT('',(-21.2,8.,2.59625121419239E-15));
#192=CARTESIAN_POINT('',(-21.2,8.,2.59625121419239E-15));
#193=CARTESIAN_POINT('Origin',(0.,8.,0.));
#194=CARTESIAN_POINT('Origin',(0.,8.,0.));
#195=CARTESIAN_POINT('',(18.7,8.,-2.29008951440555E-15));
#196=CARTESIAN_POINT('Origin',(0.,8.,0.));
#197=CARTESIAN_POINT('Origin',(0.,0.5,0.));
#198=CARTESIAN_POINT('',(-18.7,1.,-2.29008951440555E-15));
#199=CARTESIAN_POINT('',(18.7,1.,-2.29008951440555E-15));
#200=CARTESIAN_POINT('Origin',(0.,1.,0.));
#201=CARTESIAN_POINT('Origin',(0.,1.,0.));
#202=CARTESIAN_POINT('',(-17.7,0.,2.16762483449082E-15));
#203=CARTESIAN_POINT('',(-18.2,0.5,2.22885717444818E-15));
#204=CARTESIAN_POINT('Origin',(0.,0.,0.));
#205=CARTESIAN_POINT('Origin',(0.,0.,0.));
#206=CARTESIAN_POINT('',(18.7,0.,-2.29008951440555E-15));
#207=CARTESIAN_POINT('Origin',(0.,0.,0.));
#208=UNCERTAINTY_MEASURE_WITH_UNIT(LENGTH_MEASURE(0.01),#212,
'DISTANCE_ACCURACY_VALUE',
'Maximum model space distance between geometric entities at asserted c
onnectivities');
#209=UNCERTAINTY_MEASURE_WITH_UNIT(LENGTH_MEASURE(0.01),#212,
'DISTANCE_ACCURACY_VALUE',
'Maximum model space distance between geometric entities at asserted c
onnectivities');
#210=(
GEOMETRIC_REPRESENTATION_CONTEXT(3)
GLOBAL_UNCERTAINTY_ASSIGNED_CONTEXT((#208))
GLOBAL_UNIT_ASSIGNED_CONTEXT((#212,#214,#215))
REPRESENTATION_CONTEXT('','3D')
);
#211=(
GEOMETRIC_REPRESENTATION_CONTEXT(3)
GLOBAL_UNCERTAINTY_ASSIGNED_CONTEXT((#209))
GLOBAL_UNIT_ASSIGNED_CONTEXT((#212,#214,#215))
REPRESENTATION_CONTEXT('','3D')
);
#212=(
LENGTH_UNIT()
NAMED_UNIT(*)
SI_UNIT(.MILLI.,.METRE.)
);
#213=(
LENGTH_UNIT()
NAMED_UNIT(*)
SI_UNIT(.CENTI.,.METRE.)
);
#214=(
NAMED_UNIT(*)
PLANE_ANGLE_UNIT()
SI_UNIT($,.RADIAN.)
);
#215=(
NAMED_UNIT(*)
SI_UNIT($,.STERADIAN.)
SOLID_ANGLE_UNIT()
);
#216=SHAPE_DEFINITION_REPRESENTATION(#217,#218);
#217=PRODUCT_DEFINITION_SHAPE('',$,#220);
#218=SHAPE_REPRESENTATION('',(#126),#210);
#219=PRODUCT_DEFINITION_CONTEXT('part definition',#224,'design');
#220=PRODUCT_DEFINITION('50510','50510',#221,#219);
#221=PRODUCT_DEFINITION_FORMATION('',$,#226);
#222=PRODUCT_RELATED_PRODUCT_CATEGORY('50510','50510',(#226));
#223=APPLICATION_PROTOCOL_DEFINITION('international standard',
'automotive_design',2009,#224);
#224=APPLICATION_CONTEXT(
'Core Data for Automotive Mechanical Design Process');
#225=PRODUCT_CONTEXT('part definition',#224,'mechanical');
#226=PRODUCT('50510','50510',$,(#225));
#227=PRESENTATION_STYLE_ASSIGNMENT((#228));
#228=SURFACE_STYLE_USAGE(.BOTH.,#231);
#229=SURFACE_STYLE_RENDERING_WITH_PROPERTIES($,#235,(#230));
#230=SURFACE_STYLE_TRANSPARENT(0.);
#231=SURFACE_SIDE_STYLE('',(#232,#229));
#232=SURFACE_STYLE_FILL_AREA(#233);
#233=FILL_AREA_STYLE('',(#234));
#234=FILL_AREA_STYLE_COLOUR('',#235);
#235=COLOUR_RGB('',0.0196078431372549,0.0196078431372549,0.0196078431372549);
ENDSEC;
END-ISO-10303-21;
