ISO-10303-21;
HEADER;
/* Generated by software containing ST-Developer
 * from STEP Tools, Inc. (www.steptools.com) 
 */

FILE_DESCRIPTION(
/* description */ (''),
/* implementation_level */ '2;1');

FILE_NAME(
/* name */ '50515.ipt.step',
/* time_stamp */ '2022-07-20T08:04:40+02:00',
/* author */ ('Abt. Technik'),
/* organization */ (''),
/* preprocessor_version */ 'ST-DEVELOPER v19.2',
/* originating_system */ 'Autodesk Inventor 2023',
/* authorisation */ '');

FILE_SCHEMA (('AUTOMOTIVE_DESIGN { 1 0 10303 214 3 1 1 }'));
ENDSEC;

DATA;
#10=MECHANICAL_DESIGN_GEOMETRIC_PRESENTATION_REPRESENTATION('',(#13),#250);
#11=SHAPE_REPRESENTATION_RELATIONSHIP('SRR','None',#257,#12);
#12=ADVANCED_BREP_SHAPE_REPRESENTATION('',(#14),#249);
#13=STYLED_ITEM('',(#266),#14);
#14=MANIFOLD_SOLID_BREP('Volumenk\X\F6rper1',#127);
#15=CONICAL_SURFACE('',#163,18.2,0.785398163397449);
#16=PLANE('',#161);
#17=PLANE('',#168);
#18=FACE_BOUND('',#34,.T.);
#19=FACE_BOUND('',#37,.T.);
#20=FACE_BOUND('',#41,.T.);
#21=SPHERICAL_SURFACE('',#158,113.36);
#22=TOROIDAL_SURFACE('',#153,20.2,1.);
#23=FACE_OUTER_BOUND('',#31,.T.);
#24=FACE_OUTER_BOUND('',#32,.T.);
#25=FACE_OUTER_BOUND('',#33,.T.);
#26=FACE_OUTER_BOUND('',#35,.T.);
#27=FACE_OUTER_BOUND('',#36,.T.);
#28=FACE_OUTER_BOUND('',#38,.T.);
#29=FACE_OUTER_BOUND('',#39,.T.);
#30=FACE_OUTER_BOUND('',#40,.T.);
#31=EDGE_LOOP('',(#86,#87,#88,#89));
#32=EDGE_LOOP('',(#90,#91,#92,#93,#94));
#33=EDGE_LOOP('',(#95));
#34=EDGE_LOOP('',(#96));
#35=EDGE_LOOP('',(#97,#98,#99,#100,#101));
#36=EDGE_LOOP('',(#102));
#37=EDGE_LOOP('',(#103));
#38=EDGE_LOOP('',(#104,#105,#106,#107,#108));
#39=EDGE_LOOP('',(#109,#110,#111,#112,#113));
#40=EDGE_LOOP('',(#114));
#41=EDGE_LOOP('',(#115));
#42=LINE('',#218,#46);
#43=LINE('',#231,#47);
#44=LINE('',#242,#48);
#45=LINE('',#245,#49);
#46=VECTOR('',#175,6.25);
#47=VECTOR('',#192,21.2);
#48=VECTOR('',#205,18.2);
#49=VECTOR('',#210,18.7);
#50=CIRCLE('',#151,6.25);
#51=CIRCLE('',#152,6.25);
#52=CIRCLE('',#154,20.3797792808829);
#53=CIRCLE('',#155,1.);
#54=CIRCLE('',#156,21.2);
#55=CIRCLE('',#157,21.2);
#56=CIRCLE('',#160,21.2);
#57=CIRCLE('',#162,18.7);
#58=CIRCLE('',#164,18.7);
#59=CIRCLE('',#165,18.7);
#60=CIRCLE('',#166,17.7);
#61=VERTEX_POINT('',#215);
#62=VERTEX_POINT('',#217);
#63=VERTEX_POINT('',#221);
#64=VERTEX_POINT('',#223);
#65=VERTEX_POINT('',#225);
#66=VERTEX_POINT('',#230);
#67=VERTEX_POINT('',#234);
#68=VERTEX_POINT('',#237);
#69=VERTEX_POINT('',#238);
#70=VERTEX_POINT('',#241);
#71=EDGE_CURVE('',#61,#61,#50,.T.);
#72=EDGE_CURVE('',#61,#62,#42,.T.);
#73=EDGE_CURVE('',#62,#62,#51,.T.);
#74=EDGE_CURVE('',#63,#63,#52,.T.);
#75=EDGE_CURVE('',#63,#64,#53,.T.);
#76=EDGE_CURVE('',#64,#65,#54,.T.);
#77=EDGE_CURVE('',#65,#64,#55,.T.);
#78=EDGE_CURVE('',#65,#66,#43,.T.);
#79=EDGE_CURVE('',#66,#66,#56,.T.);
#80=EDGE_CURVE('',#67,#67,#57,.T.);
#81=EDGE_CURVE('',#68,#69,#58,.T.);
#82=EDGE_CURVE('',#69,#68,#59,.T.);
#83=EDGE_CURVE('',#68,#70,#44,.T.);
#84=EDGE_CURVE('',#70,#70,#60,.T.);
#85=EDGE_CURVE('',#67,#69,#45,.T.);
#86=ORIENTED_EDGE('',*,*,#71,.F.);
#87=ORIENTED_EDGE('',*,*,#72,.T.);
#88=ORIENTED_EDGE('',*,*,#73,.F.);
#89=ORIENTED_EDGE('',*,*,#72,.F.);
#90=ORIENTED_EDGE('',*,*,#74,.T.);
#91=ORIENTED_EDGE('',*,*,#75,.T.);
#92=ORIENTED_EDGE('',*,*,#76,.T.);
#93=ORIENTED_EDGE('',*,*,#77,.T.);
#94=ORIENTED_EDGE('',*,*,#75,.F.);
#95=ORIENTED_EDGE('',*,*,#74,.F.);
#96=ORIENTED_EDGE('',*,*,#71,.T.);
#97=ORIENTED_EDGE('',*,*,#77,.F.);
#98=ORIENTED_EDGE('',*,*,#78,.T.);
#99=ORIENTED_EDGE('',*,*,#79,.T.);
#100=ORIENTED_EDGE('',*,*,#78,.F.);
#101=ORIENTED_EDGE('',*,*,#76,.F.);
#102=ORIENTED_EDGE('',*,*,#79,.F.);
#103=ORIENTED_EDGE('',*,*,#80,.T.);
#104=ORIENTED_EDGE('',*,*,#81,.T.);
#105=ORIENTED_EDGE('',*,*,#82,.T.);
#106=ORIENTED_EDGE('',*,*,#83,.T.);
#107=ORIENTED_EDGE('',*,*,#84,.T.);
#108=ORIENTED_EDGE('',*,*,#83,.F.);
#109=ORIENTED_EDGE('',*,*,#80,.F.);
#110=ORIENTED_EDGE('',*,*,#85,.T.);
#111=ORIENTED_EDGE('',*,*,#81,.F.);
#112=ORIENTED_EDGE('',*,*,#82,.F.);
#113=ORIENTED_EDGE('',*,*,#85,.F.);
#114=ORIENTED_EDGE('',*,*,#84,.F.);
#115=ORIENTED_EDGE('',*,*,#73,.T.);
#116=CYLINDRICAL_SURFACE('',#150,6.25);
#117=CYLINDRICAL_SURFACE('',#159,21.2);
#118=CYLINDRICAL_SURFACE('',#167,18.7);
#119=ADVANCED_FACE('',(#23),#116,.F.);
#120=ADVANCED_FACE('',(#24),#22,.T.);
#121=ADVANCED_FACE('',(#25,#18),#21,.T.);
#122=ADVANCED_FACE('',(#26),#117,.T.);
#123=ADVANCED_FACE('',(#27,#19),#16,.F.);
#124=ADVANCED_FACE('',(#28),#15,.T.);
#125=ADVANCED_FACE('',(#29),#118,.T.);
#126=ADVANCED_FACE('',(#30,#20),#17,.F.);
#127=CLOSED_SHELL('',(#119,#120,#121,#122,#123,#124,#125,#126));
#128=DERIVED_UNIT_ELEMENT(#131,1.);
#129=DERIVED_UNIT_ELEMENT(#252,-3.);
#130=DIMENSIONAL_EXPONENTS(0.,1.,0.,0.,0.,0.,0.);
#131=(
CONVERSION_BASED_UNIT('gram',#133)
MASS_UNIT()
NAMED_UNIT(#130)
);
#132=(
MASS_UNIT()
NAMED_UNIT(*)
SI_UNIT(.KILO.,.GRAM.)
);
#133=MASS_MEASURE_WITH_UNIT(MASS_MEASURE(0.001),#132);
#134=DERIVED_UNIT((#128,#129));
#135=MEASURE_REPRESENTATION_ITEM('density measure',
POSITIVE_RATIO_MEASURE(7.85),#134);
#136=PROPERTY_DEFINITION_REPRESENTATION(#141,#138);
#137=PROPERTY_DEFINITION_REPRESENTATION(#142,#139);
#138=REPRESENTATION('material name',(#140),#249);
#139=REPRESENTATION('density',(#135),#249);
#140=DESCRIPTIVE_REPRESENTATION_ITEM('Stahl, Guss','Stahl, Guss');
#141=PROPERTY_DEFINITION('material property','material name',#259);
#142=PROPERTY_DEFINITION('material property','density of part',#259);
#143=DATE_TIME_ROLE('creation_date');
#144=APPLIED_DATE_AND_TIME_ASSIGNMENT(#145,#143,(#259));
#145=DATE_AND_TIME(#146,#147);
#146=CALENDAR_DATE(2021,10,5);
#147=LOCAL_TIME(0,0,0.,#148);
#148=COORDINATED_UNIVERSAL_TIME_OFFSET(0,0,.BEHIND.);
#149=AXIS2_PLACEMENT_3D('placement',#213,#169,#170);
#150=AXIS2_PLACEMENT_3D('',#214,#171,#172);
#151=AXIS2_PLACEMENT_3D('',#216,#173,#174);
#152=AXIS2_PLACEMENT_3D('',#219,#176,#177);
#153=AXIS2_PLACEMENT_3D('',#220,#178,#179);
#154=AXIS2_PLACEMENT_3D('',#222,#180,#181);
#155=AXIS2_PLACEMENT_3D('',#224,#182,#183);
#156=AXIS2_PLACEMENT_3D('',#226,#184,#185);
#157=AXIS2_PLACEMENT_3D('',#227,#186,#187);
#158=AXIS2_PLACEMENT_3D('',#228,#188,#189);
#159=AXIS2_PLACEMENT_3D('',#229,#190,#191);
#160=AXIS2_PLACEMENT_3D('',#232,#193,#194);
#161=AXIS2_PLACEMENT_3D('',#233,#195,#196);
#162=AXIS2_PLACEMENT_3D('',#235,#197,#198);
#163=AXIS2_PLACEMENT_3D('',#236,#199,#200);
#164=AXIS2_PLACEMENT_3D('',#239,#201,#202);
#165=AXIS2_PLACEMENT_3D('',#240,#203,#204);
#166=AXIS2_PLACEMENT_3D('',#243,#206,#207);
#167=AXIS2_PLACEMENT_3D('',#244,#208,#209);
#168=AXIS2_PLACEMENT_3D('',#246,#211,#212);
#169=DIRECTION('axis',(0.,0.,1.));
#170=DIRECTION('refdir',(1.,0.,0.));
#171=DIRECTION('center_axis',(0.,-1.,0.));
#172=DIRECTION('ref_axis',(1.,0.,0.));
#173=DIRECTION('center_axis',(0.,-1.,0.));
#174=DIRECTION('ref_axis',(1.,0.,0.));
#175=DIRECTION('',(0.,-1.,0.));
#176=DIRECTION('center_axis',(0.,1.,0.));
#177=DIRECTION('ref_axis',(1.,0.,0.));
#178=DIRECTION('center_axis',(0.,1.,0.));
#179=DIRECTION('ref_axis',(0.,0.,1.));
#180=DIRECTION('center_axis',(0.,-1.,0.));
#181=DIRECTION('ref_axis',(-1.,0.,-1.22464679914735E-16));
#182=DIRECTION('center_axis',(-1.,0.,1.22464679914735E-16));
#183=DIRECTION('ref_axis',(-1.22464679914735E-16,0.,-1.));
#184=DIRECTION('center_axis',(0.,1.,0.));
#185=DIRECTION('ref_axis',(-1.,0.,-1.22464679914735E-16));
#186=DIRECTION('center_axis',(0.,1.,0.));
#187=DIRECTION('ref_axis',(-1.,0.,-1.22464679914735E-16));
#188=DIRECTION('center_axis',(6.12323399573677E-17,0.,1.));
#189=DIRECTION('ref_axis',(1.,0.,0.));
#190=DIRECTION('center_axis',(0.,1.,0.));
#191=DIRECTION('ref_axis',(1.,0.,0.));
#192=DIRECTION('',(0.,-1.,0.));
#193=DIRECTION('center_axis',(0.,1.,0.));
#194=DIRECTION('ref_axis',(1.,0.,0.));
#195=DIRECTION('center_axis',(0.,1.,0.));
#196=DIRECTION('ref_axis',(0.,0.,1.));
#197=DIRECTION('center_axis',(0.,1.,0.));
#198=DIRECTION('ref_axis',(-1.,0.,0.));
#199=DIRECTION('center_axis',(0.,1.,0.));
#200=DIRECTION('ref_axis',(1.,0.,0.));
#201=DIRECTION('center_axis',(0.,-1.,0.));
#202=DIRECTION('ref_axis',(1.,0.,0.));
#203=DIRECTION('center_axis',(0.,-1.,0.));
#204=DIRECTION('ref_axis',(1.,0.,0.));
#205=DIRECTION('',(0.707106781186548,-0.707106781186547,-8.65956056235494E-17));
#206=DIRECTION('center_axis',(0.,1.,0.));
#207=DIRECTION('ref_axis',(1.,0.,0.));
#208=DIRECTION('center_axis',(0.,1.,0.));
#209=DIRECTION('ref_axis',(-1.,0.,0.));
#210=DIRECTION('',(0.,-1.,0.));
#211=DIRECTION('center_axis',(0.,1.,0.));
#212=DIRECTION('ref_axis',(0.,0.,1.));
#213=CARTESIAN_POINT('',(0.,0.,0.));
#214=CARTESIAN_POINT('Origin',(0.,22.,-2.22044604925031E-15));
#215=CARTESIAN_POINT('',(-6.25,21.8275748481254,-2.98585029871741E-15));
#216=CARTESIAN_POINT('Origin',(0.,21.8275748481254,-2.22044604925031E-15));
#217=CARTESIAN_POINT('',(-6.25,0.,-1.45504179978322E-15));
#218=CARTESIAN_POINT('',(-6.25,22.,-2.98585029871741E-15));
#219=CARTESIAN_POINT('Origin',(0.,0.,-2.22044604925031E-15));
#220=CARTESIAN_POINT('Origin',(0.,19.1693155683143,0.));
#221=CARTESIAN_POINT('',(-2.49580314636628E-15,20.1530225420444,-20.3797792808829));
#222=CARTESIAN_POINT('Origin',(0.,20.1530225420444,0.));
#223=CARTESIAN_POINT('',(-2.59625121419239E-15,19.1693155683143,-21.2));
#224=CARTESIAN_POINT('Origin',(-2.47378653427765E-15,19.1693155683143,-20.2));
#225=CARTESIAN_POINT('',(-21.2,19.1693155683143,2.59625121419239E-15));
#226=CARTESIAN_POINT('Origin',(0.,19.1693155683143,0.));
#227=CARTESIAN_POINT('Origin',(0.,19.1693155683143,0.));
#228=CARTESIAN_POINT('Origin',(0.,-91.3599999999999,0.));
#229=CARTESIAN_POINT('Origin',(0.,12.,0.));
#230=CARTESIAN_POINT('',(-21.2,12.,2.59625121419239E-15));
#231=CARTESIAN_POINT('',(-21.2,12.,2.59625121419239E-15));
#232=CARTESIAN_POINT('Origin',(0.,12.,0.));
#233=CARTESIAN_POINT('Origin',(0.,12.,0.));
#234=CARTESIAN_POINT('',(18.7,12.,-2.29008951440555E-15));
#235=CARTESIAN_POINT('Origin',(0.,12.,0.));
#236=CARTESIAN_POINT('Origin',(0.,0.5,0.));
#237=CARTESIAN_POINT('',(-18.7,1.,-2.29008951440555E-15));
#238=CARTESIAN_POINT('',(18.7,1.,-2.29008951440555E-15));
#239=CARTESIAN_POINT('Origin',(0.,1.,0.));
#240=CARTESIAN_POINT('Origin',(0.,1.,0.));
#241=CARTESIAN_POINT('',(-17.7,0.,2.16762483449082E-15));
#242=CARTESIAN_POINT('',(-18.2,0.5,2.22885717444818E-15));
#243=CARTESIAN_POINT('Origin',(0.,0.,0.));
#244=CARTESIAN_POINT('Origin',(0.,0.,0.));
#245=CARTESIAN_POINT('',(18.7,0.,-2.29008951440555E-15));
#246=CARTESIAN_POINT('Origin',(0.,0.,0.));
#247=UNCERTAINTY_MEASURE_WITH_UNIT(LENGTH_MEASURE(0.01),#251,
'DISTANCE_ACCURACY_VALUE',
'Maximum model space distance between geometric entities at asserted c
onnectivities');
#248=UNCERTAINTY_MEASURE_WITH_UNIT(LENGTH_MEASURE(0.01),#251,
'DISTANCE_ACCURACY_VALUE',
'Maximum model space distance between geometric entities at asserted c
onnectivities');
#249=(
GEOMETRIC_REPRESENTATION_CONTEXT(3)
GLOBAL_UNCERTAINTY_ASSIGNED_CONTEXT((#247))
GLOBAL_UNIT_ASSIGNED_CONTEXT((#251,#253,#254))
REPRESENTATION_CONTEXT('','3D')
);
#250=(
GEOMETRIC_REPRESENTATION_CONTEXT(3)
GLOBAL_UNCERTAINTY_ASSIGNED_CONTEXT((#248))
GLOBAL_UNIT_ASSIGNED_CONTEXT((#251,#253,#254))
REPRESENTATION_CONTEXT('','3D')
);
#251=(
LENGTH_UNIT()
NAMED_UNIT(*)
SI_UNIT(.MILLI.,.METRE.)
);
#252=(
LENGTH_UNIT()
NAMED_UNIT(*)
SI_UNIT(.CENTI.,.METRE.)
);
#253=(
NAMED_UNIT(*)
PLANE_ANGLE_UNIT()
SI_UNIT($,.RADIAN.)
);
#254=(
NAMED_UNIT(*)
SI_UNIT($,.STERADIAN.)
SOLID_ANGLE_UNIT()
);
#255=SHAPE_DEFINITION_REPRESENTATION(#256,#257);
#256=PRODUCT_DEFINITION_SHAPE('',$,#259);
#257=SHAPE_REPRESENTATION('',(#149),#249);
#258=PRODUCT_DEFINITION_CONTEXT('part definition',#263,'design');
#259=PRODUCT_DEFINITION('50515','50515',#260,#258);
#260=PRODUCT_DEFINITION_FORMATION('',$,#265);
#261=PRODUCT_RELATED_PRODUCT_CATEGORY('50515','50515',(#265));
#262=APPLICATION_PROTOCOL_DEFINITION('international standard',
'automotive_design',2009,#263);
#263=APPLICATION_CONTEXT(
'Core Data for Automotive Mechanical Design Process');
#264=PRODUCT_CONTEXT('part definition',#263,'mechanical');
#265=PRODUCT('50515','50515',$,(#264));
#266=PRESENTATION_STYLE_ASSIGNMENT((#267));
#267=SURFACE_STYLE_USAGE(.BOTH.,#270);
#268=SURFACE_STYLE_RENDERING_WITH_PROPERTIES($,#274,(#269));
#269=SURFACE_STYLE_TRANSPARENT(0.);
#270=SURFACE_SIDE_STYLE('',(#271,#268));
#271=SURFACE_STYLE_FILL_AREA(#272);
#272=FILL_AREA_STYLE('',(#273));
#273=FILL_AREA_STYLE_COLOUR('',#274);
#274=COLOUR_RGB('',0.0196078431372549,0.0196078431372549,0.0196078431372549);
ENDSEC;
END-ISO-10303-21;
