ISO-10303-21;
HEADER;
/* Generated by software containing ST-Developer
 * from STEP Tools, Inc. (www.steptools.com) 
 */

FILE_DESCRIPTION(
/* description */ (''),
/* implementation_level */ '2;1');

FILE_NAME(
/* name */ '50518.ipt.step',
/* time_stamp */ '2022-07-20T08:04:42+02:00',
/* author */ ('Abt. Technik'),
/* organization */ (''),
/* preprocessor_version */ 'ST-DEVELOPER v19.2',
/* originating_system */ 'Autodesk Inventor 2023',
/* authorisation */ '');

FILE_SCHEMA (('AUTOMOTIVE_DESIGN { 1 0 10303 214 3 1 1 }'));
ENDSEC;

DATA;
#10=MECHANICAL_DESIGN_GEOMETRIC_PRESENTATION_REPRESENTATION('',(#13),#300);
#11=SHAPE_REPRESENTATION_RELATIONSHIP('SRR','None',#307,#12);
#12=ADVANCED_BREP_SHAPE_REPRESENTATION('',(#14),#299);
#13=STYLED_ITEM('',(#316),#14);
#14=MANIFOLD_SOLID_BREP('Volumenk\X\F6rper1',#155);
#15=TOROIDAL_SURFACE('',#189,20.2,1.);
#16=SPHERICAL_SURFACE('',#187,113.36);
#17=FACE_BOUND('',#38,.T.);
#18=FACE_BOUND('',#41,.T.);
#19=FACE_BOUND('',#45,.T.);
#20=PLANE('',#183);
#21=PLANE('',#195);
#22=CYLINDRICAL_SURFACE('',#181,3.4);
#23=CYLINDRICAL_SURFACE('',#193,21.2);
#24=CYLINDRICAL_SURFACE('',#200,18.7);
#25=FACE_OUTER_BOUND('',#35,.T.);
#26=FACE_OUTER_BOUND('',#36,.T.);
#27=FACE_OUTER_BOUND('',#37,.T.);
#28=FACE_OUTER_BOUND('',#39,.T.);
#29=FACE_OUTER_BOUND('',#40,.T.);
#30=FACE_OUTER_BOUND('',#42,.T.);
#31=FACE_OUTER_BOUND('',#43,.T.);
#32=FACE_OUTER_BOUND('',#44,.T.);
#33=FACE_OUTER_BOUND('',#46,.T.);
#34=FACE_OUTER_BOUND('',#47,.T.);
#35=EDGE_LOOP('',(#104,#105,#106,#107));
#36=EDGE_LOOP('',(#108,#109,#110,#111));
#37=EDGE_LOOP('',(#112));
#38=EDGE_LOOP('',(#113));
#39=EDGE_LOOP('',(#114,#115,#116,#117));
#40=EDGE_LOOP('',(#118));
#41=EDGE_LOOP('',(#119));
#42=EDGE_LOOP('',(#120,#121,#122,#123,#124));
#43=EDGE_LOOP('',(#125,#126,#127,#128,#129));
#44=EDGE_LOOP('',(#130));
#45=EDGE_LOOP('',(#131));
#46=EDGE_LOOP('',(#132,#133,#134,#135,#136));
#47=EDGE_LOOP('',(#137,#138,#139,#140,#141));
#48=LINE('',#260,#54);
#49=LINE('',#265,#55);
#50=LINE('',#272,#56);
#51=LINE('',#284,#57);
#52=LINE('',#294,#58);
#53=LINE('',#296,#59);
#54=VECTOR('',#207,10.15);
#55=VECTOR('',#214,3.4);
#56=VECTOR('',#223,3.89970404844167);
#57=VECTOR('',#238,21.2);
#58=VECTOR('',#251,18.2);
#59=VECTOR('',#254,18.7);
#60=CIRCLE('',#179,16.9);
#61=CIRCLE('',#180,3.4);
#62=CIRCLE('',#182,3.4);
#63=CIRCLE('',#184,17.7);
#64=CIRCLE('',#186,4.39940809688333);
#65=CIRCLE('',#188,20.3797792808829);
#66=CIRCLE('',#190,1.);
#67=CIRCLE('',#191,21.2);
#68=CIRCLE('',#192,21.2);
#69=CIRCLE('',#194,21.2);
#70=CIRCLE('',#196,18.7);
#71=CIRCLE('',#198,18.7);
#72=CIRCLE('',#199,18.7);
#73=VERTEX_POINT('',#257);
#74=VERTEX_POINT('',#259);
#75=VERTEX_POINT('',#263);
#76=VERTEX_POINT('',#267);
#77=VERTEX_POINT('',#270);
#78=VERTEX_POINT('',#274);
#79=VERTEX_POINT('',#277);
#80=VERTEX_POINT('',#279);
#81=VERTEX_POINT('',#283);
#82=VERTEX_POINT('',#287);
#83=VERTEX_POINT('',#290);
#84=VERTEX_POINT('',#291);
#85=EDGE_CURVE('',#73,#73,#60,.T.);
#86=EDGE_CURVE('',#73,#74,#48,.T.);
#87=EDGE_CURVE('',#74,#74,#61,.T.);
#88=EDGE_CURVE('',#75,#75,#62,.T.);
#89=EDGE_CURVE('',#75,#74,#49,.T.);
#90=EDGE_CURVE('',#76,#76,#63,.T.);
#91=EDGE_CURVE('',#77,#77,#64,.T.);
#92=EDGE_CURVE('',#77,#75,#50,.T.);
#93=EDGE_CURVE('',#78,#78,#65,.T.);
#94=EDGE_CURVE('',#78,#79,#66,.T.);
#95=EDGE_CURVE('',#79,#80,#67,.T.);
#96=EDGE_CURVE('',#80,#79,#68,.T.);
#97=EDGE_CURVE('',#80,#81,#51,.T.);
#98=EDGE_CURVE('',#81,#81,#69,.T.);
#99=EDGE_CURVE('',#82,#82,#70,.T.);
#100=EDGE_CURVE('',#83,#84,#71,.T.);
#101=EDGE_CURVE('',#84,#83,#72,.T.);
#102=EDGE_CURVE('',#83,#76,#52,.T.);
#103=EDGE_CURVE('',#82,#84,#53,.T.);
#104=ORIENTED_EDGE('',*,*,#85,.T.);
#105=ORIENTED_EDGE('',*,*,#86,.T.);
#106=ORIENTED_EDGE('',*,*,#87,.T.);
#107=ORIENTED_EDGE('',*,*,#86,.F.);
#108=ORIENTED_EDGE('',*,*,#88,.F.);
#109=ORIENTED_EDGE('',*,*,#89,.T.);
#110=ORIENTED_EDGE('',*,*,#87,.F.);
#111=ORIENTED_EDGE('',*,*,#89,.F.);
#112=ORIENTED_EDGE('',*,*,#90,.F.);
#113=ORIENTED_EDGE('',*,*,#85,.F.);
#114=ORIENTED_EDGE('',*,*,#91,.T.);
#115=ORIENTED_EDGE('',*,*,#92,.T.);
#116=ORIENTED_EDGE('',*,*,#88,.T.);
#117=ORIENTED_EDGE('',*,*,#92,.F.);
#118=ORIENTED_EDGE('',*,*,#93,.F.);
#119=ORIENTED_EDGE('',*,*,#91,.F.);
#120=ORIENTED_EDGE('',*,*,#93,.T.);
#121=ORIENTED_EDGE('',*,*,#94,.T.);
#122=ORIENTED_EDGE('',*,*,#95,.T.);
#123=ORIENTED_EDGE('',*,*,#96,.T.);
#124=ORIENTED_EDGE('',*,*,#94,.F.);
#125=ORIENTED_EDGE('',*,*,#96,.F.);
#126=ORIENTED_EDGE('',*,*,#97,.T.);
#127=ORIENTED_EDGE('',*,*,#98,.T.);
#128=ORIENTED_EDGE('',*,*,#97,.F.);
#129=ORIENTED_EDGE('',*,*,#95,.F.);
#130=ORIENTED_EDGE('',*,*,#98,.F.);
#131=ORIENTED_EDGE('',*,*,#99,.T.);
#132=ORIENTED_EDGE('',*,*,#100,.T.);
#133=ORIENTED_EDGE('',*,*,#101,.T.);
#134=ORIENTED_EDGE('',*,*,#102,.T.);
#135=ORIENTED_EDGE('',*,*,#90,.T.);
#136=ORIENTED_EDGE('',*,*,#102,.F.);
#137=ORIENTED_EDGE('',*,*,#99,.F.);
#138=ORIENTED_EDGE('',*,*,#103,.T.);
#139=ORIENTED_EDGE('',*,*,#100,.F.);
#140=ORIENTED_EDGE('',*,*,#101,.F.);
#141=ORIENTED_EDGE('',*,*,#103,.F.);
#142=CONICAL_SURFACE('',#178,10.15,0.785398163397448);
#143=CONICAL_SURFACE('',#185,3.89970404844167,0.802602254733783);
#144=CONICAL_SURFACE('',#197,18.2,0.785398163397449);
#145=ADVANCED_FACE('',(#25),#142,.F.);
#146=ADVANCED_FACE('',(#26),#22,.F.);
#147=ADVANCED_FACE('',(#27,#17),#20,.F.);
#148=ADVANCED_FACE('',(#28),#143,.F.);
#149=ADVANCED_FACE('',(#29,#18),#16,.T.);
#150=ADVANCED_FACE('',(#30),#15,.T.);
#151=ADVANCED_FACE('',(#31),#23,.T.);
#152=ADVANCED_FACE('',(#32,#19),#21,.F.);
#153=ADVANCED_FACE('',(#33),#144,.T.);
#154=ADVANCED_FACE('',(#34),#24,.T.);
#155=CLOSED_SHELL('',(#145,#146,#147,#148,#149,#150,#151,#152,#153,#154));
#156=DERIVED_UNIT_ELEMENT(#159,1.);
#157=DERIVED_UNIT_ELEMENT(#302,-3.);
#158=DIMENSIONAL_EXPONENTS(0.,1.,0.,0.,0.,0.,0.);
#159=(
CONVERSION_BASED_UNIT('gram',#161)
MASS_UNIT()
NAMED_UNIT(#158)
);
#160=(
MASS_UNIT()
NAMED_UNIT(*)
SI_UNIT(.KILO.,.GRAM.)
);
#161=MASS_MEASURE_WITH_UNIT(MASS_MEASURE(0.001),#160);
#162=DERIVED_UNIT((#156,#157));
#163=MEASURE_REPRESENTATION_ITEM('density measure',
POSITIVE_RATIO_MEASURE(7.85),#162);
#164=PROPERTY_DEFINITION_REPRESENTATION(#169,#166);
#165=PROPERTY_DEFINITION_REPRESENTATION(#170,#167);
#166=REPRESENTATION('material name',(#168),#299);
#167=REPRESENTATION('density',(#163),#299);
#168=DESCRIPTIVE_REPRESENTATION_ITEM('Stahl, Guss','Stahl, Guss');
#169=PROPERTY_DEFINITION('material property','material name',#309);
#170=PROPERTY_DEFINITION('material property','density of part',#309);
#171=DATE_TIME_ROLE('creation_date');
#172=APPLIED_DATE_AND_TIME_ASSIGNMENT(#173,#171,(#309));
#173=DATE_AND_TIME(#174,#175);
#174=CALENDAR_DATE(2021,10,5);
#175=LOCAL_TIME(0,0,0.,#176);
#176=COORDINATED_UNIVERSAL_TIME_OFFSET(0,0,.BEHIND.);
#177=AXIS2_PLACEMENT_3D('placement',#255,#201,#202);
#178=AXIS2_PLACEMENT_3D('',#256,#203,#204);
#179=AXIS2_PLACEMENT_3D('',#258,#205,#206);
#180=AXIS2_PLACEMENT_3D('',#261,#208,#209);
#181=AXIS2_PLACEMENT_3D('',#262,#210,#211);
#182=AXIS2_PLACEMENT_3D('',#264,#212,#213);
#183=AXIS2_PLACEMENT_3D('',#266,#215,#216);
#184=AXIS2_PLACEMENT_3D('',#268,#217,#218);
#185=AXIS2_PLACEMENT_3D('',#269,#219,#220);
#186=AXIS2_PLACEMENT_3D('',#271,#221,#222);
#187=AXIS2_PLACEMENT_3D('',#273,#224,#225);
#188=AXIS2_PLACEMENT_3D('',#275,#226,#227);
#189=AXIS2_PLACEMENT_3D('',#276,#228,#229);
#190=AXIS2_PLACEMENT_3D('',#278,#230,#231);
#191=AXIS2_PLACEMENT_3D('',#280,#232,#233);
#192=AXIS2_PLACEMENT_3D('',#281,#234,#235);
#193=AXIS2_PLACEMENT_3D('',#282,#236,#237);
#194=AXIS2_PLACEMENT_3D('',#285,#239,#240);
#195=AXIS2_PLACEMENT_3D('',#286,#241,#242);
#196=AXIS2_PLACEMENT_3D('',#288,#243,#244);
#197=AXIS2_PLACEMENT_3D('',#289,#245,#246);
#198=AXIS2_PLACEMENT_3D('',#292,#247,#248);
#199=AXIS2_PLACEMENT_3D('',#293,#249,#250);
#200=AXIS2_PLACEMENT_3D('',#295,#252,#253);
#201=DIRECTION('axis',(0.,0.,1.));
#202=DIRECTION('refdir',(1.,0.,0.));
#203=DIRECTION('center_axis',(0.,-1.,0.));
#204=DIRECTION('ref_axis',(1.,0.,0.));
#205=DIRECTION('center_axis',(0.,-1.,0.));
#206=DIRECTION('ref_axis',(1.,0.,0.));
#207=DIRECTION('',(0.707106781186547,0.707106781186547,8.65956056235493E-17));
#208=DIRECTION('center_axis',(0.,1.,0.));
#209=DIRECTION('ref_axis',(1.,0.,0.));
#210=DIRECTION('center_axis',(0.,-1.,0.));
#211=DIRECTION('ref_axis',(1.,0.,0.));
#212=DIRECTION('center_axis',(0.,-1.,0.));
#213=DIRECTION('ref_axis',(1.,0.,0.));
#214=DIRECTION('',(0.,-1.,0.));
#215=DIRECTION('center_axis',(0.,1.,0.));
#216=DIRECTION('ref_axis',(0.,0.,1.));
#217=DIRECTION('center_axis',(0.,1.,0.));
#218=DIRECTION('ref_axis',(1.,0.,0.));
#219=DIRECTION('center_axis',(0.,1.,-1.97708646579381E-17));
#220=DIRECTION('ref_axis',(1.,0.,0.));
#221=DIRECTION('center_axis',(0.,1.,0.));
#222=DIRECTION('ref_axis',(1.,0.,0.));
#223=DIRECTION('',(0.719166668316378,-0.694837609217234,-7.43349755096326E-17));
#224=DIRECTION('center_axis',(6.12323399573677E-17,0.,1.));
#225=DIRECTION('ref_axis',(1.,0.,0.));
#226=DIRECTION('center_axis',(0.,-1.,0.));
#227=DIRECTION('ref_axis',(-1.,0.,-1.22464679914735E-16));
#228=DIRECTION('center_axis',(0.,1.,0.));
#229=DIRECTION('ref_axis',(0.,0.,1.));
#230=DIRECTION('center_axis',(-1.,0.,1.22464679914735E-16));
#231=DIRECTION('ref_axis',(-1.22464679914735E-16,0.,-1.));
#232=DIRECTION('center_axis',(0.,1.,0.));
#233=DIRECTION('ref_axis',(-1.,0.,-1.22464679914735E-16));
#234=DIRECTION('center_axis',(0.,1.,0.));
#235=DIRECTION('ref_axis',(-1.,0.,-1.22464679914735E-16));
#236=DIRECTION('center_axis',(0.,1.,0.));
#237=DIRECTION('ref_axis',(1.,0.,0.));
#238=DIRECTION('',(0.,-1.,0.));
#239=DIRECTION('center_axis',(0.,1.,0.));
#240=DIRECTION('ref_axis',(1.,0.,0.));
#241=DIRECTION('center_axis',(0.,1.,0.));
#242=DIRECTION('ref_axis',(0.,0.,1.));
#243=DIRECTION('center_axis',(0.,1.,0.));
#244=DIRECTION('ref_axis',(-1.,0.,0.));
#245=DIRECTION('center_axis',(0.,1.,0.));
#246=DIRECTION('ref_axis',(1.,0.,0.));
#247=DIRECTION('center_axis',(0.,-1.,0.));
#248=DIRECTION('ref_axis',(1.,0.,0.));
#249=DIRECTION('center_axis',(0.,-1.,0.));
#250=DIRECTION('ref_axis',(1.,0.,0.));
#251=DIRECTION('',(0.707106781186548,-0.707106781186547,-8.65956056235494E-17));
#252=DIRECTION('center_axis',(0.,1.,0.));
#253=DIRECTION('ref_axis',(-1.,0.,0.));
#254=DIRECTION('',(0.,-1.,0.));
#255=CARTESIAN_POINT('',(0.,0.,0.));
#256=CARTESIAN_POINT('Origin',(0.,6.75,-2.22044604925031E-15));
#257=CARTESIAN_POINT('',(-16.9,0.,-4.29009913980934E-15));
#258=CARTESIAN_POINT('Origin',(0.,0.,-2.22044604925031E-15));
#259=CARTESIAN_POINT('',(-3.4,13.5,-1.80406613754021E-15));
#260=CARTESIAN_POINT('',(-10.15,6.75,-3.46346255038488E-15));
#261=CARTESIAN_POINT('Origin',(0.,13.5,-2.22044604925031E-15));
#262=CARTESIAN_POINT('Origin',(0.,18.,-2.22044604925031E-15));
#263=CARTESIAN_POINT('',(-3.4,16.9490005251127,-2.63682596096041E-15));
#264=CARTESIAN_POINT('Origin',(0.,16.9490005251127,-2.22044604925031E-15));
#265=CARTESIAN_POINT('',(-3.4,18.,-2.63682596096041E-15));
#266=CARTESIAN_POINT('Origin',(0.,0.,0.));
#267=CARTESIAN_POINT('',(-17.7,0.,2.16762483449082E-15));
#268=CARTESIAN_POINT('Origin',(0.,0.,0.));
#269=CARTESIAN_POINT('Origin',(0.,17.4317998282955,-2.22999140893049E-15));
#270=CARTESIAN_POINT('',(-4.39940809688333,17.9145991314782,-1.70076466421155E-15));
#271=CARTESIAN_POINT('Origin',(0.,17.9145991314782,-2.23953676861066E-15));
#272=CARTESIAN_POINT('',(-3.89970404844167,17.4317998282955,-1.75241540087588E-15));
#273=CARTESIAN_POINT('Origin',(0.,-95.3599999999999,0.));
#274=CARTESIAN_POINT('',(-2.49580314636628E-15,16.1530225420444,-20.3797792808829));
#275=CARTESIAN_POINT('Origin',(0.,16.1530225420444,0.));
#276=CARTESIAN_POINT('Origin',(0.,15.1693155683143,0.));
#277=CARTESIAN_POINT('',(-2.59625121419239E-15,15.1693155683143,-21.2));
#278=CARTESIAN_POINT('Origin',(-2.47378653427765E-15,15.1693155683143,-20.2));
#279=CARTESIAN_POINT('',(-21.2,15.1693155683143,2.59625121419239E-15));
#280=CARTESIAN_POINT('Origin',(0.,15.1693155683143,0.));
#281=CARTESIAN_POINT('Origin',(0.,15.1693155683143,0.));
#282=CARTESIAN_POINT('Origin',(0.,8.,0.));
#283=CARTESIAN_POINT('',(-21.2,8.,2.59625121419239E-15));
#284=CARTESIAN_POINT('',(-21.2,8.,2.59625121419239E-15));
#285=CARTESIAN_POINT('Origin',(0.,8.,0.));
#286=CARTESIAN_POINT('Origin',(0.,8.,0.));
#287=CARTESIAN_POINT('',(18.7,8.,-2.29008951440555E-15));
#288=CARTESIAN_POINT('Origin',(0.,8.,0.));
#289=CARTESIAN_POINT('Origin',(0.,0.5,0.));
#290=CARTESIAN_POINT('',(-18.7,1.,-2.29008951440555E-15));
#291=CARTESIAN_POINT('',(18.7,1.,-2.29008951440555E-15));
#292=CARTESIAN_POINT('Origin',(0.,1.,0.));
#293=CARTESIAN_POINT('Origin',(0.,1.,0.));
#294=CARTESIAN_POINT('',(-18.2,0.5,2.22885717444818E-15));
#295=CARTESIAN_POINT('Origin',(0.,0.,0.));
#296=CARTESIAN_POINT('',(18.7,0.,-2.29008951440555E-15));
#297=UNCERTAINTY_MEASURE_WITH_UNIT(LENGTH_MEASURE(0.01),#301,
'DISTANCE_ACCURACY_VALUE',
'Maximum model space distance between geometric entities at asserted c
onnectivities');
#298=UNCERTAINTY_MEASURE_WITH_UNIT(LENGTH_MEASURE(0.01),#301,
'DISTANCE_ACCURACY_VALUE',
'Maximum model space distance between geometric entities at asserted c
onnectivities');
#299=(
GEOMETRIC_REPRESENTATION_CONTEXT(3)
GLOBAL_UNCERTAINTY_ASSIGNED_CONTEXT((#297))
GLOBAL_UNIT_ASSIGNED_CONTEXT((#301,#303,#304))
REPRESENTATION_CONTEXT('','3D')
);
#300=(
GEOMETRIC_REPRESENTATION_CONTEXT(3)
GLOBAL_UNCERTAINTY_ASSIGNED_CONTEXT((#298))
GLOBAL_UNIT_ASSIGNED_CONTEXT((#301,#303,#304))
REPRESENTATION_CONTEXT('','3D')
);
#301=(
LENGTH_UNIT()
NAMED_UNIT(*)
SI_UNIT(.MILLI.,.METRE.)
);
#302=(
LENGTH_UNIT()
NAMED_UNIT(*)
SI_UNIT(.CENTI.,.METRE.)
);
#303=(
NAMED_UNIT(*)
PLANE_ANGLE_UNIT()
SI_UNIT($,.RADIAN.)
);
#304=(
NAMED_UNIT(*)
SI_UNIT($,.STERADIAN.)
SOLID_ANGLE_UNIT()
);
#305=SHAPE_DEFINITION_REPRESENTATION(#306,#307);
#306=PRODUCT_DEFINITION_SHAPE('',$,#309);
#307=SHAPE_REPRESENTATION('',(#177),#299);
#308=PRODUCT_DEFINITION_CONTEXT('part definition',#313,'design');
#309=PRODUCT_DEFINITION('50518','50518',#310,#308);
#310=PRODUCT_DEFINITION_FORMATION('',$,#315);
#311=PRODUCT_RELATED_PRODUCT_CATEGORY('50518','50518',(#315));
#312=APPLICATION_PROTOCOL_DEFINITION('international standard',
'automotive_design',2009,#313);
#313=APPLICATION_CONTEXT(
'Core Data for Automotive Mechanical Design Process');
#314=PRODUCT_CONTEXT('part definition',#313,'mechanical');
#315=PRODUCT('50518','50518',$,(#314));
#316=PRESENTATION_STYLE_ASSIGNMENT((#317));
#317=SURFACE_STYLE_USAGE(.BOTH.,#320);
#318=SURFACE_STYLE_RENDERING_WITH_PROPERTIES($,#324,(#319));
#319=SURFACE_STYLE_TRANSPARENT(0.);
#320=SURFACE_SIDE_STYLE('',(#321,#318));
#321=SURFACE_STYLE_FILL_AREA(#322);
#322=FILL_AREA_STYLE('',(#323));
#323=FILL_AREA_STYLE_COLOUR('',#324);
#324=COLOUR_RGB('',0.0196078431372549,0.0196078431372549,0.0196078431372549);
ENDSEC;
END-ISO-10303-21;
